Oops, an error
Loading. Please wait.

Spinning In Daffodils Tab

version 2
version 2

Whole song

Interactive

15,660 views 18 this week
2 commentsread comments
1 2 3 4 5
excellent!
x 4
add to favorites
launch autoscroll
font size
0
reset
how to read this tab
guitar tuner
Autoscroll
slow
fast
+/-
esc
set tempo
stop
Help us to improve Ultimate-Guitar.com Take our survey!
×
Author
Difficulty
Tuning
intermediate
D G D G B D
Them Crooked Vultures - Spinning in Daffodils

Tabbed By: Mark DiFranco

Tuning - D G D G B d


Main Riff:
d|--------------------------------------------------------------------| 
B|--------------------------------------------------------------------| 
G|--------------------------------------------------------------------| 
D|---------8\7/8\7--------8\7/8\7--------8\7/8\7--------8\7/8\7-------|
G|---0-0---7\6/7\6--0-0---7\6/7\6--0-0---7\6/7\6--0-0---7\6/7\6-------| 
D|--------------------------------------------------------------------| 

Chorus:
d|--------------------------------------------------------------------| 
B|--------------------------------------------------------------------| 
G|---3-3-5-7-5-3------------------------------------------------------| 
D|---3-3-5-7-5-3-----8\7/8\7-----8\7/8\7-----8\7/8\7-----8\7/8\7------|
G|---3-3-5-7-5-3-0-0-7\6/7\6-0-0-7\6/7\6-0-0-7\6/7\6-0-0-7\6/7\6------| 
D|--------------------------------------------------------------------|

d|--------------------------------------------------------------------| 
B|--------------------------------------------------------------------| 
G|-3-3-5-7/10-7-3-3-5-7/10-7-3-3-5-7/10-7-3-5-------------------------| 
D|-3-3-5-7/10-7-3-3-5-7/10-7-3-3-5-7/10-7-3-5-----8\7/8\7-----8\7/8\7-|
G|-3-3-5-7/10-7-3-3-5-7/10-7-3-3-5-7/10-7-3-5-0-0-7\6/7\6-0-0-7\6/7\6-| 
D|--------------------------------------------------------------------|

Verse Riffs:
d|--------------------------------------------------------------------| 
B|--------------------------------------------------------------------| 
G|--------------------------------------------------------------------| 
D|--------------------------------------------------------------------|
G|---7~---7-6-7-7/9-6~--0-7/10-10-1010-9-7-7/9--9~--9-6-7-7/9-6~------| 
D|--------------------------------------------------------------------|

d|--------------------------------------------------------------------| 
B|--------------------------------------------------------------------| 
G|--------------------------------------------------------------------| 
D|--------------------------------------------------------------------|
G|---7~6~4---4/9-7-6-4~-0-7/10-10-1010-9-7-7/9--9~--9-6-7-7/9-6~------| 
D|--------------------------------------------------------------------|


"Solo" after first Chorus:
d|--------------------------------------------------------------------| 
B|---2p0-------2p0------2p0------2p0------2p0-------------------------| 
G|------3p0-------3p0------3p0------3p0------3p0---3p0----------------| 
D|---------2-0-------2-0------2p0------2p0------2p0-----0~------------|
G|------------------------------------------------------0~------------| 
D|--------------------------------------------------------------------|

Right before the Transition
d|--------------------------------------------------------------------| 
B|--------------------------------------------------------------------| 
G|----------------------------------13\12/13\12----13\12/13\12--------| 
D|----9~--9/10-9--7\6--6/7-6~-------13\12/13\12----13\12/13\12--------|
G|--------------------------------------------------------------------| 
D|--------------------------------------------------------------------|

Transition:
d|--------------------------------------------------------------------| 
B|--------------------------------------------------------------------| 
G|--12~--12~--9-12-16~--17~-17~--17-17-16-14-13--13br---12~--9-12-16~-| 
D|--x----x----x-x--x----x---x----x--x--x--x--x---x------x----x-x--x---|
G|--12~--12~--9-12-16~--17~-17~--17-17-16-14-13--13br---12~--9-12-16~-| 
D|--------------------------------------------------------------------|

w/ slide:
d|--------------------------------------------------------------------| 
B|--------------------------------------12\9--9/10\9----5/7\5---------| 
G|---/9-9--9/11--9---9-9-9/12---9/12----------------------------------| 
D|--------------------------------------------------------------------|
G|--------------------------------------------------------------------| 
D|--------------------------------------------------------------------|

d|--------------------------------------------------------------------| 
B|--0--------------------0---------------------12\9--9/10\9----5/7\5--| 
G|----9/11\9--4\[slowly]---9/11\9-9/12--9/12--------------------------| 
D|--------------------------------------------------------------------|
G|--------------------------------------------------------------------| 
D|--------------------------------------------------------------------|

d|---14-14/16\14--------------14-14/16\14-14/17--14/17---21\18--------| 
B|---------------12\[slowly]------------------------------------------| 
G|--------------------------------------------------------------------| 
D|--------------------------------------------------------------------|
G|--------------------------------------------------------------------| 
D|--------------------------------------------------------------------|

d|---18/19\18--14/16\14-----------------------------------------------| 
B|----------------------------13--12--10--9~--------------------------| 
G|--------------------------------------------------------------------| 
D|--------------------------------------------------------------------|
G|--------------------------------------------------------------------| 
D|--------------------------------------------------------------------|

d|--------------------------------------------------------------------| 
B|--------------------------------------------------------------------| 
G|---/9--9/11\9--9/11-9---4\[slowly]--4/5\4--4/5\4--5--1/2--4--4/5\4--| 
D|--------------------------------------------------------------------|
G|--------------------------------------------------------------------| 
D|--------------------------------------------------------------------|
Suggest correction
What's this?
You can suggest a correction to this tab. Community and Mods will review your correction and vote to approve or reject it.
comments
print report bad tab
2 comments total.
-2 reply
Grohlism 498 wrote on December 25 2009, 10:26 am

Tuning's wrong. It's in Open G tuning.

+2 reply
NirvanaA7X 84 wrote on August 9 2015, 10:03 pm

that is open g

guest
You may want to rate the tab now too:
select rating
Please do not post tabs as comments. Select "correction" instead!