Oops, an error
Loading. Please wait.

Spinning In Daffodils Tab

version 5
version 5

Whole song

Interactive

669 views 1 this week
no commentswrite comment
1 2 3 4 5
please rate
add to favorites
launch autoscroll
font size
0
reset
how to read this tab
guitar tuner
Tab Pro tools
  • play this tab
  • loop segment
  • change instrument
  • show fretboard
  • metronome
×
Best way to learn
"Spinning In Daffodils"
Autoscroll
slow
fast
+/-
esc
set tempo
stop
Contributor
Difficulty
intermediate
-------------------------------------------------------------------------------
                   SPINNING IN DAFFODILS - Them Crooked Vultures
-------------------------------------------------------------------------------
Tabbed by: Trison Boyes
Email: trison.l.boyes@gmail.com

This is a tab for my acoustic version of
the Them Crooked Vultures song, Spinning in Daffodils
Linky for video : http://www.youtube.com/watch?v=NIf0RITOpNA

Not sure what the official name for this tuning is called, but it works.

Tuning:
e------e
B-Down-A#
G------G
D------D
A-Down-G
E--Up--G

Piano Into Chords for Guitar

e-|-7---10--12-10-8-7--|
A#|-9---9---9-------10-|
G-|-9---9---9-------9--|
D-|-9---9---11------9--|
G-|--------------------|
G-|--------------------|

Verse

   /------x8-------\ /--------x4-------\ /------x4-------\
e-|-----------------|-------------------|-----------------|
A#|-----------------|-------------------|-----------------|
G-|-0---0---3-2-3-2-|-0---0---10-9-10-9-|-0---0---3-2-3-2-| x however
D-|-0---0---3-2-3-2-|-0---0---10-9-10-9-|-0---0---3-2-3-2-|   many
G-|-0---0---3-2-3-2-|-0---0---10-9-10-9-|-0---0---3-2-3-2-|   times
G-|-0---0---x-x-x-x-|-0---0---x--x-x--x-|-0---0---x-x-x-x-|

Chorus
                          /------x4-------\
e-|----------------------|-----------------|
A#|----------------------|-----------------|
G-|-10-10-12-14-12-8---8-|-0---0---3-2-3-2-|
D-|-10-10-12-14-12-8---8-|-0---0---3-2-3-2-| x2
G-|-10-10-12-14-12-8---8-|-0---0---3-2-3-2-|
G-|-x--x--x--x--x--x---x-|-0---0---x-x-x-x-|

                          /------x2-------\
e-|----------------------|-----------------|
A#|----------------------|-----------------|
G-|-10-10-12-14-12-8---8-|-0---0---3-2-3-2-|
D-|-10-10-12-14-12-8---8-|-0---0---3-2-3-2-|
G-|-10-10-12-14-12-8---8-|-0---0---3-2-3-2-|
G-|-x--x--x--x--x--x---x-|-0---0---x-x-x-x-|

e-|--------------------------------------------------------|
A#|--------------------------------------------------------|
G-|-10-10-12-14-12-0-10-10-12-14-12---10-10-12-14-12-8-7-8-|
D-|-10-10-12-14-12-0-10-10-12-14-12---10-10-12-14-12-8-7-8-|
G-|-10-10-12-14-12-0-10-10-12-14-12---10-10-12-14-12-8-7-8-|
G-|-x--x--x--x--x--0-x--0--x--x--x----x--x--x--x--x--x-x-x-|

   /------x8-------\
e-|-----------------|
A#|-----------------|
G-|-0---0---3-2-3-2-|
D-|-0---0---3-2-3-2-|
G-|-0---0---3-2-3-2-|
G-|-0---0---x-x-x-x-|

Verse 2
Same as the first verse, until "Get 'em boys"

   /---x8----\
e-|-----------|
A#|-----------|
G-|-----------|
D-|-----3-2h3-|
G-|-3-0-------|
G-|-----------|

"Fail, as big as a whale..."

   /------x8-------\ /--------x4-------\ /------x4-------\
e-|-----------------|-------------------|---------3-2-3-2-|
A#|-----------------|-------------------|---------3-2-3-2-|
G-|-----------------|-------------------|-0---0-----------|
D-|-----------------|-------------------|-0---0-----------|
G-|-0---0---3-2-3-2-|-0---0---10-9-10-9-|-0---0-----------|
G-|-----------------|-------------------|-0---0-----------|

"I wish I was a beautiful balloon..."

e-|-------------------------------------|
A#|-------------------------------------|
G-|-7---5-4---4-9-7-5---4-4---2-4/5\4---|
D-|-x---x-x---x-x-x-x---x-x---x-x-------|
G-|-7---5-4---4-9-7-5---4-4---2-4/5\4---|
G-|-------------------------------------|

e-|-------------------------------------|
A#|-------------------------------------|
G-|-2/10--10--10-10-9-7-9---9-9---6-7-9-|
D-|-x-----x---x--x--x-x-x---x-x---x-x-x-|
G-|-2/10--10--10-10-9-7-9---9-9---6-7-9-|
G-|-------------------------------------|

   /------x13------\
e-|---------3-2-3-2-|---------|
A#|---------3-2-3-2-|---------|
G-|-0---0-----------|-0---3/10| Right into Chorus
D-|-0---0-----------|-0---3/10|
G-|-0---0-----------|-0---3/10|
G-|-0---0-----------|-0---3/10|

Chorus is the same as the first time, except the last part is...

"Get 'em..."

   /----------------x3---------------\ 
e-|-----------------|---------3-2-3-2-|-------------------|
A#|-----------------|---------3-2-3-2-|-------------------|
G-|-0---0---3-2-3-2-|-0---0-----------|-0---0---3-2-3-2-0-|
D-|-0---0---3-2-3-2-|-0---0-----------|-0---0---3-2-3-2-0-|
G-|-0---0---3-2-3-2-|-0---0-----------|-0---0---3-2-3-2-0-|
G-|-0---0---x-x-x-x-|-0---0-----------|-0---0---x-x-x-x-0-|

Chords for Outro

e-|-3-7-8--8--7-5-4-|-3-7-8--12-10-8--7-|
A#|-4-x-x--x--x-x-x-|-4-x-x--x--x--x--x-|
G-|-3-7-8--8--7-5-4-|-3-7-8--12-10-8--7-|
D-|-5-9-10-10-9-7-6-|-5-9-10-14-12-10-9-|
G-|-----------------|-------------------|
G-|-----------------|-------------------|

Last little slow part

e-|-3-7-8--12-12-10-8--7--|
A#|-4-x-x--x--14-13-11-10-|
G-|-3-7-8--12-------------|
D-|-5-9-10----------------|
G-|-----------------------|
G-|-----------------------|

************************************

| /   slide up
| \   slide down
| h   hammer-on
| p   pull-off
| ~   vibrato
| +   harmonic
| x   Mute note
| b   Bend
| pb  Pre-bend
| br  Bend release
| pbr Pre-bend release
| brb Bend release bend

| /----x4----\  Repeat section under this x4 times before going
                to next one

************************************

Should all be there, hope you enjoy!

Cheers,
Trison
comments
We did not receive enough feedback on this tab! Please rate:
print report bad tab
1 2 3 4 5
I want to post or [tab]
guest
You may want to rate the tab now too:
select rating
Please do not post tabs as comments. Select "correction" instead!