Oops, an error
Loading. Please wait.

Warsaw Bass Tab

version 1
version 1

Whole song

Interactive

  • Gtr 1 is standard drop A. The other guitars are Standard and Lap steel is Open E.
4,453 views 6 this week
1 commentread comment
1 2 3 4 5
accurate
x 3
add to favorites
launch autoscroll
font size
0
reset
guitar tuner
Autoscroll
slow
fast
+/-
esc
set tempo
stop
Help us to improve Ultimate-Guitar.com Take our survey!
×
Author
Difficulty
intermediate
G|-------------|
D|---6----6----|
A|-------------|
E|5----5-------|

G|-------------------|   |---------------------------------|
D|---6----6----------|   |---6----6------------6----6------|
A|------------6-5----|x2 |--------------5-6------------5~--|
E|5----5----------8--|   |5----5------8-----5----5---------|

G|----------------------------------------------------------|
D|---6----6-------------6----6------------------------------|
A|------------6-5--------------------4-5--7-4--5-4--5----4--|
E|5----5----------8--5----5------7-8------------------7-----|

Verse:
G|---------------|  |--------------------------------|
D|---------------|  |--------------------------------|
A|-h3--3-5--5-0--|x2|-h3--3-5--3-6-0---h3--3-5--5-0--|
E|0--------------|  |0----------------0--------------|

G|-----------------|  |------------------------------------------|
D|-----------------|  |------------------------------------------|
A|-h3--3-5--3-6-0--|x2|-h3--3-5--5-0------4-5--7-4--5-4--5----4--|
E|0----------------|  |0--------------7-8------------------7-----|

====x2

Chorus:
G|-------------------------------------------------------------------|
D|5--3------------------------------4--2-------------------------2-3-|
A|-----5-3-2-----------------------------4-2-1-------2-5-5-3-5-5-----|
E|-----------3-4h5-3-0--2-3--4-5---------------2--4------------------|

G|---------------------------------------------------------------------|
D|5-3------------------4--2--1-------3-------3-1-0-3-1-0-----------2-3-|
A|----5-2--3-5--3-2--5---------4-----------3-------------5-5-3-5-5-----|
E|-------------------------------4-2----1------------------------------|

G|--------------------------------------------------------------|
D|5--------------------------2--4--------1--3-1-----------------|
A|--5-3----------------2--4-----------3---------3-5-5303-5-5303-|
E|------3--2-3--3-5--5-------------1----------------------------|

G|---------------------------------------------------------------------------------|
D|5-3------------------------------x-4--4--------------x-3--3----------------------|
A|----5-------3--3-5--3-------x-3---------4--4----x-3---------4--530-530-530-530---|
E|------2-3-5-----------2--2-------------------1-----------------------------------|

Post-chorus:
G|-------------------|   |---------------------------------|
D|---6----6----------|   |---6----6------------6----6------|
A|------------6-5----|x2 |--------------5-6------------5~--|
E|5----5----------8--|   |5----5------8-----5----5---------|

Verse:
G|---------------|  |--------------------------------|
D|---------------|  |--------------------------------|
A|-h3--3-5--5-0--|x2|-h3--3-5--3-6-0---h3--3-5--5-0--|
E|0--------------|  |0----------------0--------------|

G|-----------------|  |------------------------------------------|
D|-----------------|  |------------------------------------------|
A|-h3--3-5--3-6-0--|x2|-h3--3-5--5-0------4-5--7-4--5-4--5----4--|
E|0----------------|  |0--------------7-8------------------7-----|

====x2

Chorus:
G|-------------------------------------------------------------------|
D|5------------------4-------------310-310-----------------------2-3-|
A|----5-3--------2-4---4--------4----------532-532-5-5-3-5-3h5-7-----|
E|--------4-3--3---------2-0--2--------------------------------------|

G|---------------5p3-----------------------------------------------------|
D|5--5------5--5----5-4-11--10--8--6--5----------310-310--------------23-|
A|-----5--5----------------------------------------------530-530-530-5---|
E|--------------------------------------1--0-1--1------------------------|

G|-----10--10-9--9-7-5-3------9--9-7---------------------------------------|
D|5--5-------------------4--4---------9\--3-----------------------------23-|
A|---------------------------------------------------3-1---530-530-530-5---|
E|----------------------------------------1-1-0-1--1-----3-----------------|

G|------------------------4-3---7-5---8-7-8-9\----------------------|
D|------------------3-3-3-----4-----6-----------3-1--------1--1-3\--|
A|------------5-5-5---------------------------------2-3--3----------|
E|3-3-3-6-6-6-------------------------------------------------------|

Breakdown:
G|-----5--2-|  |----------|  |----------|
D|----------|  |----------|  |-----8----|
A|0--0------|x8|0--0-6--3-|x4|0--0----9-|x4
E|----------|  |----------|  |----------|

Mess around with D#m (A|-18) for 4 bars, C (A|-15) for 4 bars, Gm (A|-20) for 4 bars and 
(A|-19) for 4 bars
Minor argegio(Example is Gm):
G|--------------|
D|--------2-3-5-|
A|--1-3-5-------|
E|3-------------|

Major arpegio(Example is G):
G|--------------|
D|--------3-4-5-|
A|--2-3-5-------|
E|3-------------|

Solo:
G|-----------------------------------7--5-7-9-76---|
D|---7--5--------7--5--------7--5----------------7-|
A|---------7-----------7-----------7---------------|
E|5-----------5-----------5------------------------|

G|---------------------------------------------------------7---------------|
D|---7--x-------------7--x------------7--6--5---------------98-9-7---------|
A|---------6-x-5-x----------6-x-5-x------------7--6----------------9-8-7-5-|
E|5-x--------------5-x--------------5----------------5-5h7-----------------|

G|------------------------------------------------------------------|
D|----7-----------------7---------------7--------------7--7---------|
A|---7---76--x-6--x----7---76--75-x----7---76-x-6-x---x----6--6-53--|
E|5-----------------5---------------5---------------5-------------6-|

G|------------5--x-----------------------------------------------------|
D|---x7--x5--x----7--x---------------7--------------5--9--9--7--x------|
A|--------------------7-----------------------6--7---------------8--x--|
E|5----------------------x5--x5--x5-----6--5---------------------------|

G|---------------------------------------------|
D|7--x-----7-----------7--7--------------------|
A|------------7--------------7--7--6--7--------|
E|----5--5-------5--x--------------------1--3--|

G|---------------------------------------------------------|
D|-----7------------------7p5--5------------7--5-----------|
A|--------7--6h7--7----------7----6-5--6----------7--6--4--|
E|3-/5---------------5--5-----------------5----------------|

G|------------------------9--8------------------------|
D|----7--79--7-------x7--7----9--7----------5--3------|
A|---7--------8--7----------------------7--7----6--4--|
E|5---------------5-----------------3--3--------------|

G|-------------------------------------------------------------|
D|--------------------7--7-------------------------------------|
A|--------------------------7--5h7--7-7--7-----------3--4-5--5-|
E|1--1-3--3-4--4-5--5----------------------3--3-5--5-----------|

G|--------------------------------------------------------------------------|
D|--7-------7-------------8--8--------------------------------9--9--8p6-----|
A|----7-6-----7-6---4-7-8-------7-----------------------6--7-----------8765-|
E|5-------5-------5----------------6--5--4--3--1--3--5----------------------|

G|----------------------------|
D|x-7-----x-7-----------------|
A|----7-6-----7-6-0--9--7--5--|
E|----------------------------|

I kind of got lost in the solo, but it's in Am using Blues, pentatonic, minor and 
scales, have fun with that.

Interlude:
Here, you can either go down the chords:
G|4-----|1  |5-----|2
D|--6---|   |--6---|
A|----7-|x4 |----6-|x4
E|------|   |------|

Or mess around with the arpegios:
Bm (1)                Cdim (2)
G|----------1-2-4-|  |------------5-7-8-|
D|----0-2-4-------|  |------4-6-7-------|
A|2-4-------------|  |3-5-6-------------|
E|----------------|  |------------------|

Untill 05:35 when you just play down the chords.

Bridge (06:40ish)
G|-------|
D|-------|
A|-------|x Alot
E|xh5--5-|

G|4-----|   |5-----|
D|--6---|   |--6---|
A|----7-|x8 |----7-|x8
E|------|   |------|
     \        /
      \  x2  /

Filler:
G|-------------------0-------2-------|
D|-3-2-0---0-2-3p2p0---3-2-0---2-0---|
A|-------3-------------------------3-|
E|-----------------------------------|

Outro:
G|------------------|  |------------------------|
D|---6----6---------|  |----6----6--------------|
A|------------6-5---|x2|-----------------4-5----|
E|5----5----------8-|  |-5----5------7-8--------|

Sorry about the solo, I got very lost. I'll be updating it when I'm good enough
Suggest correction
Give kudos to tab author, rate the tab!
1 2 3 4 5
comments
print report bad tab
1 comment total.
0 reply
Cliff Geezer 210 wrote on March 8 2010, 01:43 pm

instead of playing
G
D 7 7
A 7 5
E 5 5 7

try this
G
D 7 7
A 6 5
E 5 5 8

guest
You may want to rate the tab now too:
select rating
Please do not post tabs as comments. Select "correction" instead!