Oops, an error
Loading. Please wait.

Crazy Tuesday Bass Tab

832 views 3 this week
no commentswrite comment
1 2 3 4 5
please rate
add to favorites
launch autoscroll
font size
0
reset
guitar tuner
Autoscroll
slow
fast
+/-
esc
set tempo
stop
Help us to improve Ultimate-Guitar.com Take our survey!
×
Difficulty
novice
-------------------------------------------------------------------------------
			     Crazy Tuesday - Thenewno2
-------------------------------------------------------------------------------

Tabbed By : Jake
e-mail: jacobdsmith@verizon.net

Tuning: EADG

G|----------------------------------3---3-3-----------------3---------3---3--|
D|---------------------------------------------------------------------------|Wait for Intro 
A|--------------------------3-3-3-3---------------------------3-3-3-3--------|(around :30)
E|---------------------------------------------------------------------------|

G|-3--------------------------3---3-3-----------------3---------2---2-2------|
D|--------------------0-0-0-0---------------------------3-3-3-3--------------|
A|---------------------------------------------------------------------------|
E|---------------------------------------------------------------------------|

G|-------0-2-3---------3---3-3----------------------------3---3-3------------|
D|---0-3---------------------------------------------------------------------|
A|---------------3-3-3----------------------------3-3-3-3--------------------|
E|---------------------------------------------------------------------------|

G|-----3---------3---3-3-----------------3---------2---2-2-------------0-2---|
D|-------0-0-0-0---------------------------3-3-3-3-----------------0-3-------|
A|---------------------------------------------------------------------------|
E|---------------------------------------------------------------------------|

G|3-2---2----------2---2-------------3---3-----------3---3---------0-2---2---|
D|---------------3-----------------3-----------------------------------------|
A|-------------------------------------------------3-------------------------|
E|---------------------------------------------------------------------------|

G|-------0-2-2-2-----------0---0-----------0---0-----------2---2-------------|
D|-----------------------3---------------3---------------3---------------3---|
A|---------------------------------------------------------------------------|
E|---------------------------------------------------------------------------|

G|-2---2-----------3---3-----------3-3-3---------0-2---2---------0-2-2-2-----|
D|---------------3-----------------------------------------------------------|
A|-------------------------------3-------------------------------------------|
E|---------------------------------------------------------------------------|

G|-------0---0-----------0-0-0-----------------------------------------------|
D|-----3---------------3---------------3-------------------------------------|
A|---------------------------------------3-3-3-3-------3-3---3---------3-3---|
E|---------------------------------------------------------------------------|

G|-----------------------------------------------------------3-2---2---------|
D|---------------------------3-3---3---------3-3---3-------------------------|
A|-3---------3-3---3---------------------------------------------------------|
E|---------------------------------------------------------------------------|

G|---2---2h3-----2-----------------------------------------------------------|
D|-3---3-----3---------------------------------------------------------------|
A|-------------------3---3---------3-3---3---------3-3---3---------3-3---3---|
E|---------------------------------------------------------------------------|

G|---------3---------------------------------2---2-----------2---2h3---------|
D|-----------3---3---------3-3---3---------3---------------3---3-----3---3---|
A|---------------------------------------------------------------------------|
E|---------------------------------------------------------------------------|

G|-2---2-----------2---2-----------3---3-----------3---3---------0-2---2-----|
D|---------------3---------------3---------------3---------------------------|
A|---------------------------------------------------------------------------|
E|---------------------------------------------------------------------------|

G|-----0-2---2-----------0---0-----------0---0-----------2---2-----------2---|
D|---------------------3---------------3---------------3---------------3-----|
A|---------------------------------------------------------------------------|
E|---------------------------------------------------------------------------|

G|-2-----------3---3-----------3-3-3---------0-2---2---------0-2-2-2---------|
D|-----------3---------------------------------------------------------------|
A|---------------------------3-----------------------------------------------|
E|---------------------------------------------------------------------------|

G|---0---0-----------0-0-0-------------------3---3-3---------------3---------|
D|-3---------------3---------------3-----------------------------------------|
A|-----------------------------------3-3-3-3-------------------------3-3-3---|
E|---------------------------------------------------------------------------|

G|-3---3-3---------------3---------3---3-3---------------3---------2---2-2---|
D|-------------------------0---0-0-------------------------3-3-3-3-----------|
A|---------------------------------------------------------------------------|
E|---------------------------------------------------------------------------|

G|---------0-2-3---------3---3-3---------------3---------3---3-3-------------|
D|-----0-3-------------------------------------------------------------------|
A|---------------3-3-3-3-------------------------3-3-3-3---------------------|
E|---------------------------------------------------------------------------|

G|---3---------3---3-3---------------3---------2---2-2-----------0-2-3-------|
D|-----0-0-0-0-------------------------3-3-3-3---------------0-3-------------|
A|---------------------------------------------------------------------3-3---|
E|---------------------------------------------------------------------------|

G|-----3---3-3-----------------3---------3---3-3---------------3---------3---|(about 3:20)
D|---------------------------------------------------------------------------|(Wait and listen
A|-3-3---------------------------3-3-3-3-------------------------3---3-3-----|to awesome synth)
E|---------------------------------------------------------------------------|

G|-3-3---------------3---------3---3-3-----------------------2---2-2---------|
D|-----------------------0-0-------------------------3-3-3-3-----------------|
A|---------------------------------------------------------------------------|
E|---------------------------------------------------------------------------|

G|-----0-2-3---------3---3-3---------------3---------3---3-3-----------------|
D|-0-3-----------------------------------------------------------------------|[FIN]
A|-----------3-3-3-3-------------------------3-3-3-3-------------------------|
E|---------------------------------------------------------------------------|

| /  slide up
| \  slide down
| h  hammer-on
| p  pull-off
| ~  vibrato
| +  harmonic
| x  Mute note
===============================================================================
Suggest correction new What's this?
You can suggest a correction to this tab. Community and Mods will review your correction and vote to approve or reject it.
comments
We did not receive enough feedback on this tab! Please rate:
print report bad tab
1 2 3 4 5
guest
You may want to rate the tab now too:
select rating
Please do not post tabs as comments. Select "correction" instead!