Oops, an error
Loading. Please wait.

Shelter Tab

806 views 1 this week
no commentswrite comment
1 2 3 4 5
please rate
add to favorites
launch autoscroll
font size
0
reset
how to read this tab
guitar tuner
Autoscroll
slow
fast
+/-
esc
set tempo
stop
Help us to improve Ultimate-Guitar.com Take our survey!
×
            thenewno2 - Shelter; from the album "You Are Here"
                      Tabbed by: anotherjanedoe

Chords:  Dm  G Em  A  C Am
       e|-1--3--0--0--0--0-|
       B|-3--3--0--2--1--1-|
       G|-2--0--0--2--0--2-|
       D|-0--0--2--2--2--2-|
       A|-x--2--2--0--3--0-|
       E|-x--3--0--x--x--x-|


e|--------------------------------------------------------------------------|
B|--------------------------------------------------------------------------|
G|-----------------------------------------------------------------------9--|
D|-----7-------7-----5-----5--------5--3-----3-----7----------7-----7-------|
A|-/5------/5-----3-----------------------3-----5-------5--8-----5----------|
E|------------------------3-------/3----------------------------------------|

e|----------------------|
B|----------------------|
G|----------------------|
D|----5---------5-----5-|
A|-3-------2/3----------|
E|-----------------3----|

Dm             G
I see young trees despite the weather.

Dm                        G
I'm know when the clouds go, we'll see much better.

  Em                                                                       A
I feel alone like the moon at night, smilin' bright, lookin' out my window.

    Dm                                                          G
The witches come, take their time, one by one and I watch 'em burn.

                                Dm
Watch 'em burn. Watch 'em burn. And I run for your shelter.

e|--------------------|
B|-----8--------------|
G|-10------------7----|
D|--------7--10-----9-|
A|--------------------|
E|--------------------|

Dm                   G
I see old darkened leaves lay down in the winter.

Dm                       G
I'm sure when the time comes, we'll be together.

Em                                                                 A
Fallin' trees and the rising seas; a billion people on their knees.

Dm                                                                       G
They're washed away, and we're to blame. No one cared, now it's all too late.

G
It's all to late. I said it's all too late.

C                                  Am                Em
But when your person's dead and gone, nothing can belong.

                 A              C              Am                      Em
Till then, we're stuck here waiting. Days grow colder, friendships are over.

    Am              Dm
And soon we will be gone. And I run for your shelter.

e|--------------------|
B|-----8--------------|
G|-10------------7----|
D|--------7--10-----9-|
A|--------------------|
E|--------------------|

        Em                                                              A
Can you sail to me over rising seas? A hurricane and you're washed away.

e|----------------------------------------------------------------------|
B|----------------------------------------------------------------------|
G|----------------------------------------------------------------------|
D|----------------------------------------------------------------------|
A|------------------------8-8-8-7-7-5-----------------5-5-5-3-2-3-------|
E|----------------------------------------------------------------3-3---|
  Still I'm stuck at home,   by my own. Silver tone, and I play it low.

E|-3-3--------------|
        Play it low.

Dm                     G
Where the witches come, they can take their time.

Dm        G
Where the, where the witches come.

Dm                     G
Where the witches come, they can take their time.

Dm        G
Where the, where the witches come.

Dm   G   Dm   G

  (Dm)                             (G)
e|-----------------------------------------------------------------------|
B|-----------------------------------------------------------------------|
G|-----------------------------------------------------------------------|
D|----------------------------------------------------5-3---3------------|
A|-8-8-8-7-7-5-------5-5-5H7-5-3-5------------------------3----------8-8-|
E|-------------3-3-----------------3-3--3-3--3-3---/3---------3-3--------|

e|-----------------------------------------------------------3~----------|
B|-----------------------------------------------------------3~----------|
G|-----------------------------------------------------------0~----------|
D|----------------------------------------------5--3-----3---0~----------|
A|-8-7-7-5-------5-5-5H7-5-3-5------------------------3------2~----------|
E|---------3-3-----------------3-3---/3~-/3~-/3--------------3~----------|


   / = slide up
   H = hammer-on
   ~ = ring out
Suggest correction
Give kudos to tab author, rate the tab!
1 2 3 4 5
comments
print report bad tab
guest
You may want to rate the tab now too:
select rating
Please do not post tabs as comments. Select "correction" instead!