Oops, an error
Loading. Please wait.

Good To Be Alone chords

version 2
version 2

Whole song

856 views 21 this week
no commentswrite comment
1 2 3 4 5
x 5
add to favorites
×
Save as Personal and add changes to this tab that will be seen only by you. Learn more ›
×
You can save this tab as Personal to edit and correct it or add notes. All changes will be seen only by you. Learn more »
launch autoscroll
font size
0
reset
transpose
0
reset
simplify chords
display chords
guitar tuner
edit
Autoscroll
slow
fast
+/-
esc
set tempo
stop
Strumming
There is no strumming pattern for this song yet. and get +5 IQ
Tuning - C# Standard 
         C#-F#-B-E-G#-C# (low to high)

https://www.youtube.com/watch?v=_jtXzmE3Rh4
      
[Chords]

C#|--0-----------0-----------3-------0--------0-------
G#|--1-----------1-----------0-------1--------1-------
E |--0-----------2-----------0-------2--------3-------
B |--2-----------3-----------0-------2--------2-------
F#|--3-----------3-----------0-------0--------3-------
C#|--3-----------------------3------------------------
     C/G        Fmaj7/C    Gadd2     Am       C7

[Intro]

C/G
C#|--0----0-----0----0-----0----0-----0----0-----0-----|
G#|--1----1-----1----1-----1----1-----1----1-----1-----|
E |--0----0-----0----0-----0----0-----0----0-----0-----|
B |--0h2--0h2---2----2-----2----2-----2----2-----2-----|
F#|--3----3-------------3----------3----------3--------|
C#|--3----3-------------3----------3----------3--------|
                        T          T          T         

[Verse 1]

C/G
Lookin' out my rearview mirror,

The miles behind don't disappear ,
          Fmaj7/C
Like they used to,
           C/G
When I was with you.

However hard I hit the gas,

The engine don't run half as fast,
      Fmaj7/C
As it once did,
             C/G
When we were just kids.


[Pre-chorus]

Gadd2
All the good ol' days are gone,

C#|-------3---------3-----------3---------|
G#|-------0---------0h1p0-------0---------|
E |---0---0---0-----0-------0---0---------| (he plays Gadd2 with that hammer-on every time)
B |---0-------0-----0-------0---0---------|
F#|---0-------0-----0-------0-------------|
C#|---3-------3-------------3-------------|

         Am                 Fmaj7/C
But this life keeps rollin' on.
          C/G
On and on.


[Chorus]
                        Fmaj7/C
Yeah it's good to be alone,
                           C/G
No one to call you on the phone,
                         Gadd2
After a month out on the road, yeah.
                          C/G
No one to tell you welcome home, now
          C7                    Fmaj7/C
No one to scratch you down your back
                          C/G
No one to you cut you any slack, no
                              Gadd2
You got to scratch it on your on, yeah
                     C/G
Yeah it's good to be alone


[Verse 2]

C/G
The mountain tops don't stand so high,

The open road ain't quite as wide,
           Fmaj7/C 
As it once seemed,

C#|----------0~~------|
G#|---------1~~-------|
E |--------2~~--------| (make slow burning hot passionate love to this chord, really open it up)
B |-------3~~---------|
F#|---3--3~~----------|
C#|-------------------|

                     C/G
When we had the same dream

The evening stars don't shine so bright,

When we don't make love through the night,
        Fmaj7/C
Like we once did,
                        C/G     
Yeah, those lights are faded.


[Pre-Chorus]

Gadd2
All the good ol' days are gone,
         Am                 Fmaj7/C
But this life keeps rollin' on.
          C/G
On and on.


[Chorus]
           C7        Fmaj7/C
Yeah it's good to be alone,
                           C/G
No one to call you on the phone,
                         Gadd2
After a month out on the road, yeah.
                          C/G
No one to tell you welcome home, now
          C7                    Fmaj7/C
No one to scratch you down your back
                          C/G
No one to you cut you any slack, no
                              Gadd2
You got to scratch it on your on, yeah
                     C/G
Yeah it's good to be alone


[Outro]

Fmaj7/C   C/G   Fmaj7/C   Gadd2   Fmaj7/C   C/G
Ooohhh woooaahhh ooohh woooaahhh ooo woowwooahhh ooooo
                                   Gadd2
You'll learn to scratch it on your own,
                        Fmaj7/C   C/G   Gadd2   C/G
Yeah it's good to be alone

C#|-0---0--0---0--0-----3----------0~~---|
G#|-1---1--1---1--1------0--------1~~----|
E |-0h2-0--2---0--0-------0------0~~-----|
B |-3---3--3---2----------------2~~------|
F#|-3---3--3---3---------------3~~-------|
C#|------------3------3-------3~~--------|

            
            
Suggest correction
Creating personal tab
Creating personal tab
You can edit any tab online and save it as your Personal.

You can edit, replace or remove any tab part or add personal notes – all changes will be seen only by you.

Personal tabs can be accessed anytime from any device, even offline.
Learn more »
comments
print report bad tab
guest
You may want to rate the tab now too:
select rating
Wanna post a correction for this tab? Suggest correction