Oops, an error
Loading. Please wait.

I Am tab

version 1
version 1

Whole song

  • This is an awesome ballad by Theocracy. Although i... Show more

Interactive

43 views 3 this week
no commentswrite comment
1 2 3 4 5
3 more votes to show rating
add to favorites
×
Save as Personal and add changes to this tab that will be seen only by you. Learn more ›
×
You can save this tab as Personal to edit and correct it or add notes. All changes will be seen only by you. Learn more »
launch autoscroll
font size
0
reset
how to read this tab
guitar tuner
edit
Autoscroll
slow
fast
+/-
esc
set tempo
stop
About this tab version
This is an awesome ballad by Theocracy. Although it's on the tougher side of playability-it's definitely a good one to learn. Was this info helpful? Yes No
[Intro]
D#|------|
A#|-10~--|
F#|------|
C#|------|
G#|------|
D#|------|

D#|-------------|------------|-----------|------------------|
A#|-------------|------------|-----------|------------------|
F#|-------------|------------|-----------|------------------|
C#|-9-7-9-------|-9-7--------|-10-10-----|--------------9-7-|
G#|-7-5-7-------|-----10-----|--7--7-----|------------------|
D#|-------0-0-0-|--------0-0-|-------0-0-|-5-0-7-0-8-10-----|
                                  > < <
D#|-------------|------------|-----------|-------|
A#|-------------|------------|-----------|-------|
F#|-------------|------------|----x-x----|-------|
C#|-9-7-9-------|-9-7--------|-10-x-x-x--|-5-4-7-|
G#|-7-5-7-------|-----10-----|--7-x-x-x--|-3-2-5-|
D#|-------0-0-0-|--------0-0-|----x-x-x--|-------|

D#|-------------|------------|-----------|------------------|
A#|-------------|------------|-----------|------------------|
F#|-------------|------------|-----------|------------------|
C#|-9-7-9-------|-9-7--------|-10-10-----|--------------9-7-|
G#|-7-5-7-------|-----10-----|--7--7-----|------------------|
D#|-------0-0-0-|--------0-0-|-------0-0-|-5-0-7-0-8-10-----|
                                  > < <
D#|-------------|------------|-----------|-----|
A#|-------------|------------|-----------|-----|
F#|-------------|------------|----x-x----|-----|
C#|-9-7-9-------|-9-7--------|-10-x-x-x--|-5-4-|
G#|-7-5-7-------|-----10-----|--7-x-x-x--|-3-2-|
D#|-------0-0-0-|--------0-0-|----x-x-x--|-----|

D#|---------------------------|---------------------------|
A#|---------------------------|---------------------------|
F#|---------------------------|---------------------------|
C#|---------------------------|---------------------------|
G#|-2-2-{2-2}-2-{2-2}-2-{2-2}-|-2-2-{2-2}-2-2-{2-0}-{2-0}-|
D#|-0-0-{0-0}-0-{0-0}-0-{0-0}-|-0-0-{0-0}-0-0-{2-0}-{2-0}-|
        
D#|---------------------------|-----------------|
A#|---------------------------|-----------------|
F#|---------------------------|-----------------|
C#|---------------------------|-------------5---|
G#|-2-2-{2-2}-2-{2-2}-2-{2-2}-|-2-2-{2-2}-2-3-'2|
D#|-0-0-{0-0}-0-{0-0}-0-{0-0}-|-0-0-{0-0}-0-----|

D#|--------------|----------------|-------------|-----------------|
A#|--------------|----------------|-------------|-----------------|
F#|--------------|----------------|-------------|-----------------|
C#|--------------|----------------|-------------|-----------------|
G#|--------------|----------------|-------------|-----------------|
D#|-0-0-0--0-0-0-|-0-0-0--0-0-0-0-|0-000--00000-|-00000--00000000-|

D#|-----------------------------|---------------|-----|
A#|-----------------------------|---------------|-----|
F#|-----------------------------|---------------|-----|
C#|-----------------------------|---------------|-5---|
G#|-----------------------------|---------------|-3-3-|
D#|-0-0-0--0-0--0--0-0--0-0-0-0-|-0-000--0-0--0-|-----|

[Acoustic]
D#|-------------------|-------------------|
A#|-------------------|-------------------|
F#|---4-2-0-2-0-2-0---|-------------------|
C#|-2---------------4-|-5-4-5-4-----5-4-0-|
G#|-------------------|---------2-3-------|
D#|-------------------|-------------------|

D#|-------------------|-----------------|
A#|-------------------|-----------------|
F#|---4-2-0-2-0-2-0---|-----------------|
C#|-2---------------4-|-5-4-5-4-----5-4-|
G#|-------------------|---------2-3-----|
D#|-------------------|-----------------|

D#|-------------------|-------------------|
A#|-------------------|-------------------|
F#|---4-2-0-2-0-2-0---|-------------------|
C#|-2---------------4-|-5-4-5-4-----5-4-0-|
G#|-------------------|---------2-3-------|
D#|-------------------|-------------------|

D#|-------------------|-----------------|
A#|-------------------|-----------------|
F#|---4-2-0-2-0-2-0---|-----------------|
C#|-2---------------4-|-5-4-5-4-----5-4-|
G#|-------------------|---------2-3-----|
D#|-------------------|-----------------|

[Verse 1]
D#|---|---------|---------|--------|----------|
A#|-0-|-------5-|-------7-|------8-|-------10-|
F#|-9-|-----5---|-----9---|----10--|-----12---|
C#|-9-|---5-----|---9-----|---10---|----12----|
G#|-7-|-3-------|-7-------|-8------|-10-------|
D#|-0-|---------|---------|--------|----------|

D#|---------|---3-----|---------|--------|----------|
A#|-------7-|-------5-|-------7-|------8-|-------10-|
F#|-----9---|-----5---|-----9---|----10--|-----12---|
C#|---9-----|---5-----|---9-----|---10---|----12----|
G#|-7-------|-3-------|-7-------|-8------|-10-------|
D#|---------|---------|---------|--------|----------|

[Electric p1]
D#|------|-------------------|-------------------|
A#|------|-------------------|-------------------|
F#|------|---7-5---5---5-----|-------------------|
C#|------|-5-----9---9---9-7-|-9-7-9-7-----9-7---|
G#|-15\--|-------------------|---------5-7-----9-|
D#|-17\--|-------------------|-------------------|

D#|-------------------|-----------------|
A#|-------------------|-----------------|
F#|---7-5---5---5-----|-----------------|
C#|-5-----9---9---9-7-|-9-7-9-7-----9-7-|
G#|-------------------|---------5-7-----|
D#|-------------------|-----------------|

[Electric p2]
D#|----------------------|----------------------|
A#|----------------------|----------------------|
F#|----------------------|----------------------|
C#|---9-7----9----9------|----------------------|
G#|-7-----10---10---10-9-|-10-9-10-9-----10-9-5-|
D#|----------------------|-----------7-8--------|

D#|----------------------|--------------------|
A#|----------------------|--------------------|
F#|----------------------|--------------------|
C#|---9-7----9----9------|--------------------|
G#|-7-----10---10---10-9-|-10-9-10-9-----10-9-|
D#|----------------------|-----------7-8------|

[Verse 2]
D#|---------|---3-----|---------|--------|----------|
A#|-------7-|-------5-|-------7-|------8-|-------10-|
F#|-----9---|-----5---|-----9---|----10--|-----12---|
C#|---9-----|---5-----|---9-----|---10---|----12----|
G#|-7-------|-3-------|-7-------|-8------|-10-------|
D#|---------|---------|---------|--------|----------|

D#|---------|-3-------|---------|--------|----------|
A#|-------7-|-------5-|-------7-|------8-|-------10-|
F#|-----9---|-----5---|-----9---|----10--|-----12---|
C#|---9-----|---5-----|---9-----|---10---|----12----|
G#|-7-------|-3-------|-7-------|-8------|-10-------|
D#|---------|---------|---------|--------|----------|

[Chorus]
D#|----|
A#|----|
F#|----|
C#|----|
G#|-x\-|
D#|-x\-|

D#|-------------------------------|---------|
A#|-------------------------------|---------|
F#|-5-5-5-5-5\4/5-5-5\4/5-5-5\4/5-|-7-5-4-5-|
C#|-7-7-7-7-7-7-7-7-7-7-7-7-7-7-7-|-7-7-7-7-|
G#|-------------------------------|---------|
D#|-------------------------------|---------|
 
D#|-------------------------------|---------|
A#|-------------------------------|---------|
F#|-5-5-5-5-5\4/5-5-5\4/5-5-5\4/5-|-7-5-4-5-|
C#|-3-3-3-3-3-3-3-3-3-3-3-3-3-3-3-|-3-3-3-3-|
G#|-------------------------------|---------|
D#|-------------------------------|---------| 
                                                            
D#|-------------------------------|---------|
A#|-------------------------------|---------|
F#|-4-4-4-4-4\2/4-4-4\2/4-4-4\2/4-|-5-4-2-4-|
C#|-5-5-5-5-5-5-5-5-5-5-5-5-5-5-5-|-5-5-5-5-|
G#|-------------------------------|---------|
D#|-------------------------------|---------|
                                    (2x)
D#|---------------------|-----------|
A#|---------------------|-----------|
F#|-9-9-9-9-9\7/9-9\7/9-|-----------|
C#|-7-7-7-7-7-7-7-7-7-7-|-5---5-----|
G#|---------------------|-3-3-3-3-5-|
D#|---------------------|---------3-|

D#|-------------|------------|-----------|------------------|
A#|-------------|------------|-----------|------------------|
F#|-------------|------------|-----------|------------------|
C#|-9-7-9-------|-9-7--------|-10-10-----|--------------9-7-|
G#|-7-5-7-------|-----10-----|--7--7-----|------------------|
D#|-------0-0-0-|--------0-0-|-------0-0-|-5-0-7-0-8-10-----|
                                  > < <
D#|-------------|------------|-----------|-----|
A#|-------------|------------|-----------|-----|
F#|-------------|------------|----x-x----|-----|
C#|-9-7-9-------|-9-7--------|-10-x-x-x--|-5-4-|
G#|-7-5-7-------|-----10-----|--7-x-x-x--|-3-2-|
D#|-------0-0-0-|--------0-0-|----x-x-x--|-----|

[Verse 3]
D#|---------|-3-------|---------|--------|----------|
A#|-------7-|-------5-|-------7-|------8-|-------10-|
F#|-----9---|-----5---|-----9---|----10--|-----12---|
C#|---9-----|---5-----|---9-----|---10---|----12----|
G#|-7-------|-3-------|-7-------|-8------|-10-------|
D#|---------|---------|---------|--------|----------|

D#|--------------------|
A#|--------------------|
F#|--------------------|
C#|--------------------|
G#|-----------2--------|
D#|-0-0-0-0-0-0-0--0-0-|

D#|--------------------|
A#|--------------------|
F#|--------------------|
C#|--------------------|
G#|-----------2-2--2-2-|
D#|-0-0-0-0-0-0-0--0-0-|

D#|---------|---------|--------|----------|
A#|-------5-|-------7-|------8-|-------10-|
F#|-----5---|-----9---|----10--|-----12---|
C#|---5-----|---9-----|---10---|----12----|
G#|-3-------|-7-------|-8------|-10-------|
D#|---------|---------|--------|----------|

[Chorus]
D#|----|
A#|----|
F#|----|
C#|----|
G#|-x\-|
D#|-x\-|

D#|-------------------------------|---------|
A#|-------------------------------|---------|
F#|-5-5-5-5-5\4/5-5-5\4/5-5-5\4/5-|-7-5-4-5-|
C#|-7-7-7-7-7-7-7-7-7-7-7-7-7-7-7-|-7-7-7-7-|
G#|-------------------------------|---------|
D#|-------------------------------|---------|

D#|-------------------------------|---------|
A#|-------------------------------|---------|
F#|-5-5-5-5-5\4/5-5-5\4/5-5-5\4/5-|-7-5-4-5-|
C#|-3-3-3-3-3-3-3-3-3-3-3-3-3-3-3-|-3-3-3-3-|
G#|-------------------------------|---------|
D#|-------------------------------|---------| 
                                                                        
D#|-------------------------------|---------|
A#|-------------------------------|---------|
F#|-4-4-4-4-4\2/4-4-4\2/4-4-4\2/4-|-5-4-2-4-|
C#|-5-5-5-5-5-5-5-5-5-5-5-5-5-5-5-|-5-5-5-5-|
G#|-------------------------------|---------|
D#|-------------------------------|---------|

D#|---------------------|-----------|
A#|---------------------|-----------|
F#|-9-9-9-9-9\7/9-9\7/9-|-----------|
C#|-7-7-7-7-7-7-7-7-7-7-|-5---5-----|
G#|---------------------|-3-3-3-3-5-|
D#|---------------------|---------3-|

D#|-------------------------------|---------|
A#|-------------------------------|---------|
F#|-5-5-5-5-5\4/5-5-5\4/5-5-5\4/5-|-7-5-4-5-|
C#|-7-7-7-7-7-7-7-7-7-7-7-7-7-7-7-|-7-7-7-7-|
G#|-------------------------------|---------|
D#|-------------------------------|---------|

D#|-------------------------------|---------|
A#|-------------------------------|---------|
F#|-5-5-5-5-5\4/5-5-5\4/5-5-5\4/5-|-7-5-4-5-|
C#|-3-3-3-3-3-3-3-3-3-3-3-3-3-3-3-|-3-3-3-3-|
G#|-------------------------------|---------|
D#|-------------------------------|---------| 

D#|-------------------------------|---------|
A#|-------------------------------|---------|
F#|-4-4-4-4-4\2/4-4-4\2/4-4-4\2/4-|-5-4-2-4-|
C#|-5-5-5-5-5-5-5-5-5-5-5-5-5-5-5-|-5-5-5-5-|
G#|-------------------------------|---------|
D#|-------------------------------|---------|

D#|---------------------|-----------|---|
A#|---------------------|-----------|---|
F#|-9-9-9-9-9\7/9-9\7/9-|-----------|---|
C#|-7-7-7-7-7-7-7-7-7-7-|-5---5-----|-7-|
G#|---------------------|-3-3-3-3-5-|-7-|
D#|---------------------|---------3-|-5-|

[Instrumental]
[Guitar 1]
D#|--------|---|--------|-------|
A#|--------|---|--------|-------|
F#|--------|---|--------|-------|
C#|-2----5-|-5-|-2----5-|-------|
G#|-0--5-3-|-3-|-0--5-3-|-3-5-7-|
D#|----3---|---|----3---|-1-3-5-|

D#|--------------|-----------------|
A#|--------------|-----------------|
F#|--------------|-----------------|
C#|-2-------5----|-2-------5-------|
G#|-0-------3--5-|-0-------3-3-5-7-|
D#|---3-3-3----3-|---3-3-3---1-3-5-|
                                                                           (2x)
D#|---------------------|--------------------|---------------------|-------|
A#|---------------------|--------------------|---------------------|-------|
F#|---------------------|--------------------|---------------------|-------|
C#|-------2-----------5-|-5------------------|-------2-----------5-|-------|
G#|-0-0-0-0-0-0-------3-|-3--3-3-3-3-3-3-3-5-|-0-0-0-0-0-0-------3-|-3-5-7-|
D#|-------------3-3-3---|------------------3-|-------------3-3-3---|-1-3-5-|

[Guitar 2]
D#|-------------------|-15----13-12-------12-13-12----------|
A#|----17-15-13-12-13-|----13-------15-13----------15-13-15-|
F#|-14----------------|-------------------------------------|
C#|-------------------|-------------------------------------|
G#|-------------------|-------------------------------------|
D#|-------------------|-------------------------------------|
                                                (3x)
D#|-------------------|-------------------------|
A#|----17-15-13-12-13-|----12-13-15-13-12-------|
F#|-14----------------|-14----------------14-12-|
C#|-------------------|-------------------------|
G#|-------------------|-------------------------|
D#|-------------------|-------------------------|

D#|-------------------|-15----13-12-------12-13-12----------|
A#|----17-15-13-12-13-|----13-------15-13----------15-13-15-|
F#|-14----------------|-------------------------------------|
C#|-------------------|-------------------------------------|
G#|-------------------|-------------------------------------|
D#|-------------------|-------------------------------------|
                                                
D#|-------------------|----------------------|
A#|----17-15-13-12-13-|----12-13-15-13-12----|
F#|-14----------------|-14----------------14-|
C#|-------------------|----------------------|
G#|-------------------|----------------------|
D#|-------------------|----------------------|

[Bridge]
                                  (4x)
D#|----------|--------------------|
A#|----------|--------------------|
F#|----------|--------------------|
C#|-2-2-2-2|-|-2-2-2-2|-----------|
G#|-0-0-0-0|-|-0-0-0-0|-3-5-7-x-7-|
D#|----------|----------1-3-5-3-5-|

D#|-------------------------|-------------------------|
A#|-------------------------|-------------------------|
F#|-------------------------|-------------------------|
C#|-2-----------------------|-------------------------|
G#|-0-0-0-0-0-0-0-0-0-0-0-0-|-0-0-0-0-0-0-0-0-0-0-0-0-|
D#|-------------------------|-------------------------|
                                        (2x)
D#|-------------------------|-----------|
A#|-------------------------|-----------|
F#|-------------------------|-----------|
C#|-------------------------|-----------|
G#|-0-0-0-0-0-0-0-0-0-0-0-0-|-3-5-7-5-7-|
D#|-------------------------|-1-3-5-3-5-|
                                                                      (2x)
D#|-----------------|-------------------|-----------------|-----------|
A#|-----------------|-------------------|-----------------|-----------|
F#|-----------------|-------------------|-----------------|-----------|
C#|-------7---------|-------------------|-------7---------|-----------|
G#|-5-5-5-5-------7-|-------10----5-----|-5-5-5-5-------7-|-3-5-7-5-7-|
D#|---------5-5-5-5-|-8-8-8-8-3-3-3-3-3-|---------5-5-5-5-|-1-3-5-3-5-|
                                                                  (2x)
D#|-------------------------------------|-------------------------|
A#|-------------------------------------|-------------------------|
F#|-------------------------------------|-------------------------|
C#|-------------------------------------|-----------------2-----7-|
G#|-2-------2-------2-------------------|-2-------2-------0-2-5-5-|
D#|-0-0-0-0-0-0-0-0-0-0-0-0-0-0-0-0-0-0-|-0-0-0-0-0-0-0-0---0-3---|
                                                                (2x)
D#|-------------------------------------|-----------------------|
A#|-------------------------------------|-----------------------|
F#|-------------------------------------|-----------------------|
C#|-------------------------------------|---------------4---2---|
G#|-4-------4-------4-------------------|-4-------4-----2-4-0-2-|
D#|-2-2-2-2-2-2-2-2-2-2-2-2-2-2-2-2-2-2-|-2-2-2-2-2-2-2---2---0-|

[Instrumental]
D#|----------------------------|-------------------------------|
A#|----------------------------|-------------------------------|
F#|----------------------------|---------------12p11p9---------|
C#|-------12p11p9-------10p9p7-|-------12p11p9---------12p11p9-|
G#|-9-9-9---------7-7-7--------|-9-9-9-------------------------|
D#|----------------------------|-------------------------------|

D#|--------------------------|-------------------------------|
A#|--------------------------|-------------------------------|
F#|-------11p9\7-------9p7\6-|---------------12p11p9---------|
C#|--------------------------|-------12p11p9---------12p11p9-|
G#|-9-9-9--------7-7-7-------|-9-9-9-------------------------|
D#|--------------------------|-------------------------------|

D#|--------------------------|-------------------------|
A#|--------------------------|-------------------------|
F#|--------------------------|-------------------------|
C#|--------------------------|-------------5p4p2-------|
G#|-------5p4p2--------3p2p0-|-------5p4p2-------5p4p2-|
D#|-2-2-2-------0-0-0--------|-2-2-2-------------------|

D#|-------------------------|-------------------------|
A#|-------------------------|-------------------------|
F#|-------------------------|-------------------------|
C#|-------4p2p0-------------|-------------5p4p2-------|
G#|-------------------7p5p4-|-------5p4p2-------5p4p2-|
D#|-2-2-2-------0-0-0-------|-2-2-2-------------------|

D#|---------------------|------------------------------|
A#|---------------------|------------------------------|
F#|---------------------|------------------------------|
C#|---------------------|-------4----------------------|
G#|-4---4---4-5-4-2-4---|-4-5-7---7-5-4-5-4------------|
D#|---2---2-----------2-|--------------------7-5-4-2-0-|
                          > > < > < 2x
D#|---------------------|-----------|
A#|---------------------|-----------|
F#|---------------------|-----------|
C#|---------------------|-2-2-2-2---|
G#|-4---4---4-5-4-2-4---|-0-0-0-0-2-|
D#|---2---2-----------2-|---------0-|

                               7/8                       6/8
D#|---------------------------|-------------------------|-------------------|
A#|---------------------------|-------------------------|-------------------|
F#|--------------9------------|--------------7----------|--------------7----|
C#|-12---12---12---12-11-12---|-11---11---11---11-10-11-|-10---10---10---10-|
G#|----9----9---------------9-|----8----8---------------|----7----7---------|
D#|---------------------------|-------------------------|-------------------|

   5/8            4/8       3/8     2/8   3/8 4/8         4/4
D#|--------------|---------|-------|-----|---|-----------|-----|
A#|--------------|---------|-------|-----|---|-----------|-----|
F#|--------------|---------|-------|-----|---|---------8-|-8-7-|
C#|-9---9---9-10-|-8---8---|-7---7-|-6---|-5-|-----7-8---|-7-6-|
G#|---6---6------|---5---5-|---4---|---3-|-2-|-7-8-------|-----|
D#|--------------|---------|-------|-----|---|-----------|-----|
  
D#|-----------------------------------------|
A#|-----------------------------------------|
F#|-----------------------------------------|
C#|-----------------------------------------|
G#|-13-9-13-9-12-9-12-9-11-9-11-9-10-9-10-9-|
D#|-----------------------------------------|

 3/8  4/8            4/4
D#|----|--------------|------|-------------------------------------|
A#|----|--------------|------|-------------------------------------|
F#|----|-----------10-|-10-9-|-------------------------------------|
C#|----|------9-10----|--9-8-|-11-7-11-7-10-7-10-7-9-7-9-7-8-7-8-7-|
G#|----|-9-10---------|------|-------------------------------------|
D#|-12-|--------------|------|-------------------------------------|

D#|-----------------------------------------|
A#|-----------------------------------------|
F#|-----------------------------------------|
C#|-13-9-13-9-12-9-12-9-11-9-11-9-10-9-10-9-|
G#|-----------------------------------------|
D#|-----------------------------------------|

D#|-----------|
A#|--------12-|
F#|-----------|
C#|-----14----|
G#|-12--------|
D#|-----------|

[Instrumental over solo]
                        (2x)                    (2x)
D#|---------------------|---------------------|
A#|---------------------|---------------------|
F#|---------------------|---------------------|
C#|-2---------2---------|---------------------|
G#|-0-0-0-0-0-0-0-0-0-0-|-3---------3---------|
D#|---------------------|-1-1-1-1-1-1-1-1-1-1-|
                        (2x)                    (2x)
D#|---------------------|---------------------|
A#|---------------------|---------------------|
F#|---------------------|---------------------|
C#|-2---------2---------|---------------------|
G#|-0-0-0-0-0-0-0-0-0-0-|-3---------3---------|
D#|---------------------|-1-1-1-1-1-1-1-1-1-1-|
                        (2x)                    (2x)
D#|---------------------|---------------------|
A#|---------------------|---------------------|
F#|---------------------|---------------------|
C#|---------------------|-2---------2---------|
G#|-5---------5---------|-0-0-0-0-0-0-0-0-0-0-|
D#|-3-3-3-3-3-3-3-3-3-3-|---------------------|

                        (4x)                  
D#|---------------------|
A#|---------------------|
F#|---------------------|
C#|---------------------|
G#|-5---------5---------|
D#|-3-3-3-3-3-3-3-3-3-3-|

[Electric p1]
D#|---------------------|---------------------|
A#|---------------------|---------------------|
F#|-14--16-12--17-16-14-|-14--16-12--17-16-14-|
C#|-16--17-14--19-17-16-|-16--17-12--19-17-16-|
G#|---------------------|---------------------|
D#|---------------------|---------------------|

D#|--------------------|---------------|
A#|--------------------|---------------|
F#|-14--16-19-21-19-17-|-17--16-16-----|
C#|-16--17-21-22-21-19-|-19--17-17-----|
G#|--------------------|-----------16\-|
D#|--------------------|-----------17\-|

D#|---------------------|---------------------|
A#|---------------------|---------------------|
F#|-14--16-12--17-16-14-|-14--16-12--17-16-14-|
C#|-16--17-14--19-17-16-|-16--17-12--19-17-16-|
G#|---------------------|---------------------|
D#|---------------------|---------------------|

D#|--------------------|------------------|
A#|--------------------|-----------20--19-|
F#|-14--16-19-21-19-17-|-17--16-16-19b-19-|
C#|-16--17-21-22-21-19-|-19--17-17--------|
G#|--------------------|------------------|
D#|--------------------|------------------|

[Electric p2]
D#|-------------|------------------|-------------|------------------|
A#|-------------|------------------|-------------|------------------|
F#|-------------|------------------|-------------|------------------|
C#|-------------|------------------|-5-5-{5-5}-5-|-{5-5}-5--5-5-5-5-|
G#|-2-2-{2-2}-2-|-{2-2}-2--2-2-2---|-3-3-{3-3}-3-|-{3-3}-3--3-3-3-3-|
D#|-0-0-{0-0}-0-|-{0-0}-0--0-0-0-0-|-------------|------------------|
                                                         (2x)
D#|-------------|------------------|-------------|-------|
A#|-------------|------------------|-------------|-------|
F#|-------------|------------------|-------------|-------|
C#|-7-7-{7-7}-7-|-{7-7}-7--7-7-7---|-------------|-7-7-7-|
G#|-5-5-{5-5}-5-|-{5-5}-5--5-5-5-5-|-2-2-{2-2}-2-|-5-5-5-|
D#|-------------|------------------|-0-0-{0-0}-0-|-------|

[Instrumental]
                                                                            (2x)
D#|-----------------------------------|-------------------------------------|
A#|-----------------------------------|-------------------------------------|
F#|-----------------------------------|-------------------------------------|
C#|-----------------------------------|-------------------------------------|
G#|-----------------------------------|-------------------------------------|
D#|-7h8p7p0-12-0-7h8p7p0-12-0-7h8p7p0-|-7h8p7p0-12-0-7h8p7p0-12p0-11p0-10p0-|

D#|--------------------------------------|-------------------------------------------|
A#|--------------------------------------|-------------------------------------------|
F#|--------------------------------------|-------------------------------------------|
C#|--------------------------------------|-------------------------------------------|
G#|--------------------------------------|-------------------------------------------|
D#|-8h10p8p0-14-0-8h10p8p0-14-0-8h10p8p0-|-10h12p10p0-15-0-10h12p10p0-15p0-14p0-15p0-|

D#|--------------------------------------------------------------------------|
A#|--------------------------------------------------------------------------|
F#|--------------------------------------------------------------------------|
C#|--------------------------------------------------------------------------|
G#|--------------------------------------------------------------------------|
D#|-15p0-10h12p10p0--14p0-8h10p8p0-12p0-7h8p7p0-10p0-5h7p5p0-3h5p3p0-2h3p2-0-|
                                                                        (2x)                                                   
D#|-------------------------------|-------------------------------------|
A#|-------------------------------|-------------------------------------|
F#|-------------------------------|-------------------------------------|
C#|-------------------------------|-------------------------------------|
G#|---------------------------2-2-|-------------------------------------|
D#|-7h8p7p0-12-0-7h8p7p0-12-0-0-0-|-7h8p7p0-12-0-7h8p7p0-12p0-11p0-10p0-|

D#|----------------------------------|-------------------------------------------|
A#|----------------------------------|-------------------------------------------|
F#|----------------------------------|-------------------------------------------|
C#|----------------------------------|-------------------------------------------|
G#|------------------------------2-2-|-------------------------------------------|
D#|-8h10p8p0-14-0--8h10p8p0-14-0-0-0-|-10h12p10p0-15-0-10h12p10p0-15p0-14p0-15p0-|

D#|--------------------------------------------------------------------------|
A#|--------------------------------------------------------------------------|
F#|--------------------------------------------------------------------------|
C#|--------------------------------------------------------------------------|
G#|--------------------------------------------------------------------------|
D#|-15p0-10h12p10p0--14p0-8h10p8p0-12p0-7h8p7p0-10p0-5h7p5p0-3h5p3p0-2h3p2-0-|

D#|---|-----------------|
A#|---|-----------------|
F#|---|-----------------|
C#|-2-|-----------2-2-2-|
G#|-2-|-2-2-2-2-2-2-2-2-|
D#|-0-|-0-0-0-0-0-0-0-0-|

[Verse 4]
[Electric 1]
D#|------|------|---|-----|---|---|---|---|-----------------|
A#|------|------|---|-----|---|---|---|---|-----------------|
F#|------|-7--7-|---|-----|---|-9-|---|---|-----------------|
C#|-4--4-|-7--7-|-4-|-5-7-|-6-|-9-|-6-|-7-|-----------9-9-9-|
G#|-4--4-|-5--5-|-4-|-5-7-|-6-|-7-|-6-|-7-|-9-9-9-9-9-9-9-9-|
D#|-2--2-|------|-2-|-3-5-|-4-|---|-4-|-5-|-7-7-7-7-7-7-7-7-|

[Electric 2]
D#|-----------|---------|-----------|----------|----------|
A#|---------9-|-------7-|---------9-|----------|----------|
F#|------11---|-----7---|------11---|-------12-|-------14-|
C#|---11------|---7-----|---11------|----12----|----14----|
G#|-9---------|-5-------|-9---------|-10-------|-12-------|
D#|-----------|---------|-----------|----------|----------|

D#|-------------|---------|-------------|----------|----------------------------|
A#|----------11-|-------9-|----------11-|----------|--------------7--7--7--9--9-|
F#|-------13----|-----9---|-------13----|-------14-|-11-11-11-11-11-11-11-13-13-|
C#|----13-------|---9-----|----13-------|----14----|--9--9--9--9--9--9--9-11-11-|
G#|-11----------|-7-------|-11----------|-12-------|----------------------------|
D#|-------------|---------|-------------|----------|----------------------------|

[Outro]
[Electric p1]
                         (2x)
D#|---|---|---|----------|
A#|---|---|---|----------|
F#|---|---|---|----------|
C#|-6-|-2-|-4-|-6--2-2-4-|
G#|-4-|-0-|-2-|-4--2-2-2-|
D#|---|---|---|----0-0---|

D#|---|---|
A#|---|---|
F#|-2-|---|
C#|-2-|-2-|
G#|-0-|-0-|
D#|---|---|

[Electric p2]
                                                    (2x)                                    
D#|-------------------------------------------------|
A#|-------------------------------------------------|
F#|-18-18-18-18-18-18-18-18-18-18-18-18-18-18-18-18-|
C#|-------------------------------------------------|
G#|-------------------------------------------------|
D#|-------------------------------------------------|

D#|-------------------------------------------------|
A#|-------------------------------------------------|
F#|-21-21-21-21-21-21-21-21-21-21-21-21-21-21-21-21-|
C#|-------------------------------------------------|
G#|-------------------------------------------------|
D#|-------------------------------------------------|

D#|-------------------------------------------------|
A#|-------------------------------------------------|
F#|-21-21-21-21-21-21-21-21-21-18-18-18-18-21-21-21-|
C#|-------------------------------------------------|
G#|-------------------------------------------------|
D#|-------------------------------------------------|

D#|-------------------------------------------------|
A#|-------------------------------------------------|
F#|-20-20-20-20-20-20-20-20-20-20-20-20-20-20-20-20-|
C#|-------------------------------------------------|
G#|-------------------------------------------------|
D#|-------------------------------------------------|

D#|-------------------------------------------------|
A#|-------------------------------------------------|
F#|-20-20-20-20-20-20-20-20-20-18-18-18-18-20-20-20-|
C#|-------------------------------------------------|
G#|-------------------------------------------------|
D#|-------------------------------------------------|

D#|-------------------------------------------------|
A#|-------------------------------------------------|
F#|-13-13-13-13-13-13-13-13-13-13-13-13-13-13-13-13-|
C#|-------------------------------------------------|
G#|-------------------------------------------------|
D#|-------------------------------------------------|

D#|----------------------------------------------------|
A#|----------------------------------------------------|
F#|-16-16-16-16-16-16-16-16-16-16-16-16-16-16-16-16-18-|
C#|----------------------------------------------------|
G#|----------------------------------------------------|
D#|----------------------------------------------------|


************************************

| ~  Vibrato
| x  Dead note
| \  Slide down
| /  Slide up
| p  Pull-off
| b  Bend
| h  Hammer-on

************************************

            
            
Suggest correction
Creating personal tab
Creating personal tab
You can edit any tab online and save it as your Personal.

You can edit, replace or remove any tab part or add personal notes – all changes will be seen only by you.

Personal tabs can be accessed anytime from any device, even offline.
Learn more »
Give kudos to tab author, rate the tab!
1 2 3 4 5
comments
print report bad tab
guest
You may want to rate the tab now too:
select rating
Wanna post a correction for this tab? Suggest correction