Oops, an error
Loading. Please wait.

Angel Tab

version 1
version 1

Whole song

Interactive

20,016 views 312 this week
1 commentread comment
1 2 3 4 5
excellent!
x 12
add to favorites
launch autoscroll
font size
0
reset
how to read this tab
guitar tuner
Tab Pro tools
  • play this tab
  • loop segment
  • change instrument
  • show fretboard
  • metronome
Autoscroll
slow
fast
+/-
esc
set tempo
stop
Contributor
Difficulty
novice
Angel by Theory of a Deadman
Album: Savages
Standard tuning
Arrange accordingly with the song

Intro
----------------------------------------------------------------------------|
---3---3---3---3-----~7---7---7---7----2---2---2---2-----0---0---0--0-------|
-----4---4---4---4-----~7---7---7---7----2---2---2---2-----0---0---0--0-----|
----------------------------------------------------------------------------|
----------------------------------------------------------------------------|
----------------------------------------------------------------------------|

Main Rhythm
    Bm       D        A       G
-----2-------2--------0-------3-------------|
-----3-------3--------2-------3-------------|
-----4-------2--------2-------0-------------|
-----4-------0--------2-------0-------------|
-----2-------0--------0-------X-------------|
------------------------------3-------------|

After chorus/Outro
       x8
-------------------------------------------|
----7---5---3------------------------------|
----7---6---4------------------------------|
-------------------------------------------|
-------------------------------------------|
-------------------------------------------|
comments
print report bad tab
1 comment total.
+3 reply
Bair wrote on November 14 2014, 06:59 pm

After chorus/Outro
x8
----2-0-----2-0----------------------------|
---------3-------3-------------------------|
-------------------------------------------|
-------------------------------------------|
-------------------------------------------|
-------------------------------------------|

I want to post or [tab]
guest
You may want to rate the tab now too:
select rating
Please do not post tabs as comments. Select "correction" instead!