Oops, an error
Loading. Please wait.
We have an official Bad Girlfriend tab made by UG professional guitarists. Check out the tab »
×
123,260 views 12 this week
3 commentsread comments
1 2 3 4 5
x 5
add to favorites
×
Save as Personal and add changes to this tab that will be seen only by you. Learn more ›
×
You can save this tab as Personal to edit and correct it or add notes. All changes will be seen only by you. Learn more »
launch autoscroll
font size
0
reset
how to read this tab
guitar tuner
backing track
0:00
0:00
edit
Autoscroll
slow
fast
+/-
esc
set tempo
stop
This is my first tab but i'm 95% sure this is right.
Drop D

Intro (One guitar or 
|------------------------------------------|
|------------------------------------------|
|------------------------------------------|
|--0-0-------------------------------------|
|--0-0-----5--3--0-----3--5----------------|
|--0-0--------------5----------------------|

|------------------------------------------|
|------------------------------------------|
|------------------------------------------|
|--0-0-----------------3v------------------|
|--0-0-----5--3--0-------------------------|
|--0-0--------------5----------------------|  
Repeat all (Listen to figure it out)



Chorus

Rhythm 
|------------------------------------------|
|------------------------------------------|
|----------5-5-5---------5-5-5-------------|
|--0-0-0---5-5-5--5-5-5--5-5-5-------------|
|--0-0-0---3-3-3--5-5-5--3-3-3-------------|
|--0-0-0----------5-5-5--------------------|
(listen to find the strum pattern)

Lead
|-------------------------------------------|
|-------------------------------------------|
|-------------------------------------------|
|--14b--12--9--12--14b--12--9--12--14h--14b-|
|-------------------------------------------|
|-------------------------------------------|

|-------------------------------------------|
|-------------------------------------------|
|-------------------------------------------|
|--14b--12----------------------------------|
|-----------12-11-12-11-12-11---------------|
|-----------------------------12------------|

|-------------------------------------------|
|-------------------------------------------|
|-------------------------------------------|
|--14b--12--9--12--14b--12--9--12--14h--14b-|
|-------------------------------------------|
|-------------------------------------------|

|-------------------------------------------|
|-------------------------------------------|
|----------14-13-14-13-14-13-14-------------|
|--14b--12----------------------------------|
|-------------------------------------------|
|-------------------------------------------|

(Sorry no solo yet)

Outro

|-------------------------------|
|-------------------------------|
|-------------------------------|
|-0-0---------------------------|
|-0-0--5--3--0-----3--5---------|
|-0-0-----------5---------------|

|-------------------------------|
|-------------------------------|
|-------------------------------|
|-0-0--------------0-0----------|
|-0-0--5--3--0-----0-0----------|
|-0-0-----------5--0-0----------|

Leave me some comments and let me know how I did.











            
            
Suggest correction
Creating personal tab
Creating personal tab
You can edit any tab online and save it as your Personal.

You can edit, replace or remove any tab part or add personal notes – all changes will be seen only by you.

Personal tabs can be accessed anytime from any device, even offline.
Learn more »
comments
print report bad tab
3 comments total.
+1 reply
cerveza 36 Apr 20, 2008 10:09 AM

not too bad, but this part is wrong:
Intro (One guitar or
|------------------------------------------|
|------------------------------------------|
|------------------------------------------|
|--0-0-------------------------------------|
|--0-0-----5--3--0-----3--5----------------|
|--0-0--------------5----------------------|
It Should be:
Intro (One guitar or
|------------------------------------------|
|------------------------------------------|
|------------------------------------------|
|--0-0-------------------------------------|
|--0-0-----5--4--3--0--3--5----------------|
|--0-0-------------------------------------|

0 reply
puppylove06 10 Aug 12, 2008 10:24 PM

not bad i guess for a beginner...do u have anymore tabs u posted? ill check 'em out...

0 reply
SNipe996 10 May 26, 2009 08:53 AM

Try this out
|-------------------------------------------|
|-------------------------------------------|
|-------------------------------------------|
|--15b--12--9--12--15b--12--9--12--15h--15b-|
|-------------------------------------------|
|-------------------------------------------|

|-------------------------------------------|
|-------------------------------------------|
|-------------------------------------------|
|--15b--12----------------------------------|
|-----------12-11-12-11-12-11---------------|
|-----------------------------12------------|

|-------------------------------------------|
|-------------------------------------------|
|-------------------------------------------|
|--15b--12--9--12--15b--12--9--12--15h--15b-|
|-------------------------------------------|
|-------------------------------------------|

|-------------------------------------------|
|-------------------------------------------|
|----------14-13-14-13-14-13-14-------------|
|--15b--12----------------------------------|
|-------------------------------------------|
|-------------------------------------------|
message me on if its better or worse
element996@live.com

guest
You may want to rate the tab now too:
select rating
Wanna post a correction for this tab? Suggest correction