Oops, an error
Loading. Please wait.
We have an official Bad Girlfriend tab made by UG professional guitarists. Check out the tab »
×
226,037 views 78 this week
57 commentsread comments
1 2 3 4 5
x 60
add to favorites
×
Save as Personal and add changes to this tab that will be seen only by you. Learn more ›
×
You can save this tab as Personal to edit and correct it or add notes. All changes will be seen only by you. Learn more »
launch autoscroll
font size
0
reset
how to read this tab
guitar tuner
backing track
0:00
0:00
edit
Autoscroll
slow
fast
+/-
esc
set tempo
stop
Tabbed By: K_Gartin
Email: redneq50@hotmail.com
Tuning: Drop D

*Update (11/17/08)
This song is usually tuned a whole step down, but drop D is far more
convenient then tuning the rest of your strings down a whole step. The
only problem you run into when playing the song in drop D is during the
verses. I've posted two ways of playing the verses, the first way is a
more comfortable, yet incorrect way of playing it, but it still sounds fine.
The 2nd way I've posted it is the slightly more uncomfortable, yet correct
way of playing the verses.

The rhythms are very straightforward so I'm only posting chords


[Intro Part 1]

E|--------------------|----------------------|
B|--------------------|----------------------|
G|--------------------|----------------------|
D|--0-0---------------|--0-0----------3*4----|
A|--0-0--5-4-3-0-3-5--|--0-0--5-4-3-0--------|
D|--0-0---------------|--0-0-----------------|


[Intro Part 2/Chorus]

E|--------------|-------------------|
B|--------------|-------------------|
G|-----5-----5--|-----5-----5-------|
D|--0--5--5--5--|--0--5--5--5--3-0--|
A|--0--3--5--3--|--0--3--5--3--3-0--|
D|--0-----5-----|--0-----5-----3-0--|


 [Intro Lead]
 (w/slide)
E|--------------------------------------------------------------------|
B|--------------------------------------------------------------------|
G|--------------------------------------------------------------------|
D|--14/15--12--10/12--14/15--12--10/12--14/15--14/15--12--------------|
A|--------------------------------------------------------12\11-12\11-|
D|--------------------------------------------------------------------|

E|--------------------------------------------------------------------|
B|--------------------------------------------------------------------|
G|--------------------------------------------------------------------|
D|------------14/15--12--10/12--14/15--12--10/12--14/15--14/15--12----|
A|--12\11--8----------------------------------------------------------|
D|--------------------------------------------------------------------|

E|---------------------------|
B|---------------------------|
G|--14\13--14\13--14\13--14--|
D|---------------------------|
A|---------------------------|
D|---------------------------|


[Verse]

 the incorrect, yet comfortable way:
E|--------------|--------------------|---------|
B|--------------|--------------------|---------|
G|--7--5--4--5--|--7--10--12-14--17--|--5------|
D|--7--5--5--5--|--7--12--12-15--17--|--5-3-0--|
A|--------------|--------------------|--3-3-0--|
D|--------------|--------------------|----3-0--|
OR the correcct way:
e--------------|----------5-8--|---------|
B--3--3--3--3--|--3--6--8------|---------|
G--7--5--4--5--|--7--7--7-7-7--|--5------|
D--------------|---------------|--5-3-0--|
A--------------|---------------|--3-3-0--|
D--------------|---------------|----3-0--|


[Bridge]

E|---------------------------------------------------------------|
B|---------------------------------------------------------------|
G|--3-3-3-3-3-3-3-3-5-5-5-5-5-5-5-5------------------------------|
D|--3-3-3-3-3-3-3-3-5-5-5-5-5-5-5-5-0------------0---------------|
A|--1-1-1-1-1-1-1-1-3-3-3-3-3-3-3-3-0------------0---------------|
D|----------------------------------0-^2.7-^2.7--0-^2.7-^2.7-3b--|

E|-----------------------------|
B|-----------------------------|
G|-----------------------------|
D|-----------0-----------0-----|
A|-----------0-----------0-----|
D|--^2-^2.7--0--^2-^2.7--0-3b--|


[Solo]
(w/slide)
E|-------------------------------------------------------------------------|
B|--17/19--15--13/15--17------------13/15----------------------------------|
G|-------------------------------------------------------------------------|
D|------------------------12/15\12---------12/15\12--10/12-----------------|
A|----------------------------------------------------------/12\10--12\10--|
D|-------------------------------------------------------------------------|

E|------------------------------------------------------------------------|
B|------------------------------------------------------------------------|
G|---------------------------/14--12--12\10---------------/14--12--12\10--|
D|--------------/12--12--12------------------/12--12--12------------------|
A|--12\10--8\5------------------------------------------------------------|
D|------------------------------------------------------------------------|

E|--------------/17--15--15\13-------------------------------|
B|--/15--15--15-----------------/15--13--14--15--13--14--15--|
G|-----------------------------------------------------------|
D|-----------------------------------------------------------|
A|-----------------------------------------------------------|
D|-----------------------------------------------------------|

That's it...I don't think I skipped anything. The same intro riff/chord progression is 
quite a bit throughout the song.


***********************

| *   Trill
| /&\ Slides
| ^   Harmonic
| b   Bend

***********************

            
            
Suggest correction
Creating personal tab
Creating personal tab
You can edit any tab online and save it as your Personal.

You can edit, replace or remove any tab part or add personal notes – all changes will be seen only by you.

Personal tabs can be accessed anytime from any device, even offline.
Learn more »
comments
print report bad tab
57 comments total. Showing first comments.
+3 reply
Puddle ofMudd25 51 Apr 19, 2008 08:15 PM

very good tab, love this song

+3 reply
3 days grace14 10 Apr 29, 2008 09:46 AM

**** yes I love this song

+4 reply
Spanky52 10 Jun 13, 2008 09:41 AM

Nice job on the tab, song rocks.

guest
You may want to rate the tab now too:
select rating
Wanna post a correction for this tab? Suggest correction