Oops, an error
Loading. Please wait.

Hate My Life Bass Tab

version 1
version 1

Whole song

Interactive

16,838 views 3 this week
3 commentsread comments
1 2 3 4 5
x 8
add to favorites
launch autoscroll
font size
0
reset
guitar tuner
Autoscroll
slow
fast
+/-
esc
set tempo
stop
Help us to improve Ultimate-Guitar.com Take our survey!
×
Author
Just learned this song last night. It's really easy!
Great song too!
(Standard Tuning)

(guitar only up to verse 2)

Verse 2 X2
g -----------------------------------------------------------------|
d -----------------------------------------------------------------|
a -4444444444444444---------------------------------44444444444444-|
e -----------------4444444444444444-2222222222222222---------------|

Chorus
g ---------------------------------------------------------------------|
d ---------------------------------------------------------------------|
a -----------------------4-4-444-----------------------4-4-444-4-4-444-|
e 4-4-444-4-4-444-2-2-222-------4-4-444-4-4-444-2-2-222----------------|

Solo
g -----------------------------------------------------------------|
d -----------------------------------------------------------------|
a -4444444444444444---------------------------------44444444444444-|
e -----------------4444444444444444-2222222222222222---------------|

Verse 3
g -----------------------------------------------------------------|
d -----------------------------------------------------------------|
a -4444444444444444---------------------------------44444444444444-|
e -----------------4444444444444444-2222222222222222---------------|

Chorus X3
g ---------------------------------------------------------------------|
d ---------------------------------------------------------------------|
a -----------------------4-4-444-----------------------4-4-444-4-4-444-|
e 4-4-444-4-4-444-2-2-222-------4-4-444-4-4-444-2-2-222----------------|
Suggest correction
comments
print report bad tab
3 comments total.
0 reply
Edby 20 Apr 11, 2009 06:19 AM

oh dude youre almost there but its all one semitone (1 fret higher) than that. otherwise a great tab man!

+1 reply
Harley Fay 654 Apr 11, 2009 09:08 AM

no this is exactly right. Did you notice that this was tabbed in standard? The only way this would be played one fret higher is if you were dropped a 1/2 step.

0 reply
skitzoman 10 Jun 20, 2009 09:34 AM

you're both wrong. it's not a semitone off and it's not exactly right. the chorus is wrong. listen carefully, it's pretty obvious. notes are correct, number of them is not.

guest
You may want to rate the tab now too:
select rating
Wanna post a correction for this tab? Suggest correction