Oops, an error
Loading. Please wait.

Heaven tab

version 2
version 2

Whole song

7,269 views 3 this week
1 commentread comment
1 2 3 4 5
x 8
add to favorites
×
Save as Personal and add changes to this tab that will be seen only by you. Learn more ›
×
You can save this tab as Personal to edit and correct it or add notes. All changes will be seen only by you. Learn more »
launch autoscroll
font size
0
reset
how to read this tab
guitar tuner
edit
Autoscroll
slow
fast
+/-
esc
set tempo
stop
Author
Difficulty
Another great song that's bound to be a radio hit off Scars and Souvenirs. It's really 
so I'm not posting strumming patterns.

Tuned down 1/2 step.

Intro/Verse:
e--------------------------------------|
B--------------------------------------|
G-----4--------2---------0--------0----|
D---0---0----0---0-----0---0----4---4--|
A--------------------------------------|
E-3--------3---------3--------3--------|
Repeat 2X

e--------------------------------------|
B--------------------------------------|
G-----4--------2---------0--------0----|
D---0---0----0---0-----0---0----4---4--|
A--------------------------------------|
E-0--------0---------0--------0--------|
Repeat 2X

Pre-chorus: (@ 0:43)
e--2-------2-------2--|
B--3--3----3--3----3--|
G--2--0----2--0----2--|
D--0--2----0--2----0--|
A-----3-------3-------|
E---------------------|

Chorus:
e--3----3----|--3----2--3----2--3--|
B--3----3----|--3----3--3----3--3--|
G--0----0----|--0----2--0----2--0--|
D--0----2----|--2----0--2----0--0--|
A--2----2----|--3-------3-------2--|
E--3----0----|------------------3--|
Repeat 3X then:

Bridge: (@ 2:22)
e--0----2--3----3--0----2--3----2--3----2--|
B--0----3--3----3--0----3--3----3--3----3--|
G--0----2--0----0--0----2--0----2--0----2--|
D--2----0--2----0--2----0--2----0--2----0--|
A--2-------3----0--2-------3-------3-------|
E--0------------2--0-----------------------|

Solo:
e---------------------------------------------------------------------------|
B------------------------------------------------------------15--17--19--20-|
G--12--11--7--12--11--7--4---14--16--12--14--16--12--14--16--x---x---x---x--|
D--x---x---x--x---x---x--x---x---x---x---x---x---x---x---x---12--14--16--17-|
A--10--9---5--10--9---5--2---12--14--10--12--14--10--12--14-----------------|
E---------------------------------------------------------------------------|
*Play the chorus rhythm over the solo

Chorus Repeats @ end: (@ 3:24)
e--3----3--3----2--|
B--3----3--3----3--|
G--0----0--0----2--|
D--0----0--2----0--|
A--2----0--2-------|
E--3----2--0-------|
Repeat 5X

End:
e--3--
B--3--
G--0--
D--0--
A--2--
E--3--

That's it! Hope you enjoy.
for corrections or comments email me at redneq50@hotmail.com

            
            
Suggest correction
Creating personal tab
Creating personal tab
You can edit any tab online and save it as your Personal.

You can edit, replace or remove any tab part or add personal notes – all changes will be seen only by you.

Personal tabs can be accessed anytime from any device, even offline.
Learn more »
comments
print report bad tab
1 comment total.
0 reply
minimatJR 10 Oct 22, 2009 02:49 AM

extremely helpful! thank you soo much.. =)

guest
You may want to rate the tab now too:
select rating
Wanna post a correction for this tab? Suggest correction