Oops, an error
Loading. Please wait.

Heavy tab

999 views 1 this week
no commentswrite comment
1 2 3 4 5
x 4
add to favorites
×
Save as Personal and add changes to this tab that will be seen only by you. Learn more ›
×
You can save this tab as Personal to edit and correct it or add notes. All changes will be seen only by you. Learn more »
launch autoscroll
font size
0
reset
how to read this tab
guitar tuner
edit
Autoscroll
slow
fast
+/-
esc
set tempo
stop
Heavy. Track 7 from the album SAVAGES
Drop B tuning: Low to High:(B,F#,B,E,G#,C#)
Guitar 1:Rhythm
Guitar 2:Lead

Intro:
0:00
Guitar 2
1----------------------------------------------------------|
2----------------------------------------------------------|
3----------------------------------------------------------|
4--12-11---------------------------------------------------|
5--------15-14-12-11---------------------------------------|
6--------------------15-12---------------------------------|

Guitar 1
1----------------------------------------------------------|
2----------------------------------------------------------|
3----------------------------------------------------------|
4-0-00-0-000-000-00------000-0-000-0-----------------------|
5-0-00-0-000-000-00------000-0-000-0-5-4-3-2-0-------------|
6-0-00-0-000-000-00-3/6~-000-0-000-0-----------6-3-0-------|

Guitar 2
1----------------------------------------------------------|
2-5-77-5-77-5-77-5-77/11~-5-77-5-77-5-77-5-77/11~----------|
3----------------------------------------------------------|
4----------------------------------------------------------|
5----------------------------------------------------------|
6----------------------------------------------------------|

Verse:
Both Guitars:
1----------------------------------------------------------|
2----------------------------------------------------------|
3----------------------------------------------------------| X2
4----------------------------------------------------------|
5----------------------------------------------------------|
6-0-0000-00-0000-00-0000-00-3/6~---------------------------|
  . .... .. .... .. .... ..
Guitar 1
1----------------------------------------------------------|
2----------------------------------------------------------|
3----------------------------------------------------------|
4-0-00-0-000-000-00----------------------------------------|
5-0-00-0-000-000-00----------------------------------------|
6-0-00-0-000-000-00-3/6~-----------------------------------|

Guitar 2
1----------------------------------------------------------|
2-5-77-5-77-5-77-5-77/11~----------------------------------|
3----------------------------------------------------------|
4----------------------------------------------------------|
5----------------------------------------------------------|
6----------------------------------------------------------|

Both Guitars:
1----------------------------------------------------------|
2----------------------------------------------------------|
3----------------------------------------------------------| X2
4----------------------------------------------------------|
5----------------------------------------------------------|
6-0-0000-00-0000-00-0000-00-3/6~---------------------------|
  . .... .. .... .. .... ..
Pre-Chorus:
Guitar 1
1----------------------------------------------------------|
2----------------------------------------------------------|
3----------------------------------------------------------|
4-555-3-555-3-555-3-7-7-7----------------------------------|
5-555-3-555-3-555-3-7-7-7--5-4-3-2-0-----------------------|
6-555-3-555-3-555-3-7-7-7------------6-3-0-----------------|

Guitar 2
1----------------------------------------------------------|
2----------------------------------------------------------|
3----------------------------------------------------------|
4-555-3-555-3-555-3-7-7-7-12-11----------------------------|
5-555-3-555-3-555-3-7-7-7-------15-14-12-11----------------|
6-555-3-555-3-555-3-7-7-7-------------------15-12----------|

Chorus:
Both Guitars
1-----------------------------------------------------------|
2-----------------------------------------------------------|
3-----------------------------------------------------------|
4-------------------------------------------------------xxx-|
5-------------------------------------------------------xxx-|
6-00-0000-000000-00-0000-0-3/6~-0-0000-000000-00-0000-0-xxx-|

1------------------------------------------------------------|
2------------------------------------------------------------|
3------------------------------------------------------------|
4------------------------------------------------------------|
5--------------------------------------------5-4-3-2-0-------|
6-00-0000-000000-00-0000-0-3/6~-0-0000-00000-----------6-3-0-|

Guitar 1
1----------------------------------------------------------|
2----------------------------------------------------------|
3----------------------------------------------------------|
4-5555555555555555-3-3\0~----------------------------------|
5-5555555555555555-3-3\0~----------------------------------|
6-5555555555555555-3-3\0~----------------------------------|

Guitar 2
1----------------------------------------------------------|
2-13b15--15b18--17b20--19b21~------------------------------|
3----------------------------------------------------------|
4----------------------------------------------------------|
5----------------------------------------------------------|
6----------------------------------------------------------|

Post-Chorus:
Both Guitars
1----------------------------------------------------------|
2----------------------------------------------------------|
3----------------------------------------------------------|
4--0~-0-3~-0-0-0-3/10-0~-0-3~-12-11-9-6x-------------------|
5--0~-0-3~-0-0-0-3/10-0~-0-3~-12-11-9-6x-------------------|
6--0~-0-3~-0-0-0-3/10-0~-0-3~-12-11-9-6x-------------------|

Verse:
Both Guitars:
1----------------------------------------------------------|
2----------------------------------------------------------|
3----------------------------------------------------------| X2
4----------------------------------------------------------|
5----------------------------------------------------------|
6-0-0000-00-0000-00-0000-00-3/6~---------------------------|
  . .... .. .... .. .... ..
Guitar 1
1----------------------------------------------------------|
2----------------------------------------------------------|
3----------------------------------------------------------|
4-0-00-0-000-000-00----------------------------------------|
5-0-00-0-000-000-00----------------------------------------|
6-0-00-0-000-000-00-3/6~-----------------------------------|

Guitar 2
1----------------------------------------------------------|
2-5-77-5-77-5-77-5-77/11~----------------------------------|
3----------------------------------------------------------|
4----------------------------------------------------------|
5----------------------------------------------------------|
6----------------------------------------------------------|

Both Guitars:
1----------------------------------------------------------|
2----------------------------------------------------------|
3----------------------------------------------------------| X2
4----------------------------------------------------------|
5----------------------------------------------------------|
6-0-0000-00-0000-00-0000-00-3/6~---------------------------|
  . .... .. .... .. .... ..
Pre-Chorus:
Guitar 1
1----------------------------------------------------------|
2----------------------------------------------------------|
3----------------------------------------------------------|
4-555-3-555-3-555-3-7-7-7----------------------------------|
5-555-3-555-3-555-3-7-7-7--5-4-3-2-0-----------------------|
6-555-3-555-3-555-3-7-7-7------------6-3-0-----------------|

Guitar 2
1----------------------------------------------------------|
2----------------------------------------------------------|
3----------------------------------------------------------|
4-555-3-555-3-555-3-7-7-7-12-11----------------------------|
5-555-3-555-3-555-3-7-7-7-------15-14-12-11----------------|
6-555-3-555-3-555-3-7-7-7-------------------15-12----------|

Chorus:
Both Guitars
1-----------------------------------------------------------|
2-----------------------------------------------------------|
3-----------------------------------------------------------|
4-------------------------------------------------------xxx-|
5-------------------------------------------------------xxx-|
6-00-0000-000000-00-0000-0-3/6~-0-0000-000000-00-0000-0-xxx-|

1------------------------------------------------------------|
2------------------------------------------------------------|
3------------------------------------------------------------|
4------------------------------------------------------------|
5--------------------------------------------5-4-3-2-0-------|
6-00-0000-000000-00-0000-0-3/6~-0-0000-00000-----------6-3-0-|

Guitar 1
1----------------------------------------------------------|
2----------------------------------------------------------|
3----------------------------------------------------------|
4-5555555555555555-3-3\0~----------------------------------|
5-5555555555555555-3-3\0~----------------------------------|
6-5555555555555555-3-3\0~----------------------------------|

Guitar 2
1----------------------------------------------------------|
2-13b15--15b18--17b20--19b21~------------------------------|
3----------------------------------------------------------|
4----------------------------------------------------------|
5----------------------------------------------------------|
6----------------------------------------------------------|

SOLO:
Guitar 1:
1----------------------------------------------------------|
2----------------------------------------------------------|
3----------------------------------------------------------|
4--0~-0-3~-0-0-0-3/10-0~-0-3~-12-11-9-6-5-3----------------|
5--0~-0-3~-0-0-0-3/10-0~-0-3~-12-11-9-6-5-3----------------|
6--0~-0-3~-0-0-0-3/10-0~-0-3~-12-11-9-6-5-3----------------|

1----------------------------------------------------------|
2----------------------------------------------------------|
3----------------------------------------------------------|
4--0~-0-3~-0-0-0-3/10-0~-0-3~-12-11-9-6-5-3-12-11-9x-------|
5--0~-0-3~-0-0-0-3/10-0~-0-3~-12-11-9-6-5-3-12-11-9x-------|
6--0~-0-3~-0-0-0-3/10-0~-0-3~-12-11-9-6-5-3-12-11-9x-------|

Guitar 2:(Slight Wah)
1-13121010-13121010-16131210-13121010-13121010-13121010------|
2------------------------------------------------------13b15-|
3------------------------------------------------------------|
4------------------------------------------------------------|
5------------------------------------------------------------|
6------------------------------------------------------------|

1------------------------------------------------------------|
2-13121010-13121010-13121010-13121010-13121010-13121010------|
3------------------------------------------------------10b12-|
4------------------------------------------------------------|
5------------------------------------------------------------|
6------------------------------------------------------------|

1-----------------------------------------------------------|
2-13gb15-13-13-13-13b15-13gb15-15-13-10---------------------|
3---------------------------------------13-12---13-12-------|
4--------------------------------------------12------10b12--|
5-----------------------------------------------------------|
6-----------------------------------------------------------|

1--10-///22~~~~~--------------------------------------------|
2-----------------------------------------------------------|
3-----------------------------------------------------------|
4-----------------------------------------------------------|
5-----------------------------------------------------------|
6-----------------------------------------------------------|

Guitar 1
1----------------------------------------------------------|
2----------------------------------------------------------|
3----------------------------------------------------------|
4-555-3-555-3-555-3-7-7-7~---------------------------------|
5-555-3-555-3-555-3-7-7-7~---------------------------------|
6-555-3-555-3-555-3-7-7-7~---------------------------------|

Guitar 2
1----------------------------------------------------------|
2----------------------------------------------------------|
3----------------------------------------------------------|
4-555-3-555-3-555-3-7-7-7~---------------------------------|
5-555-3-555-3-555-3-7-7-7~---------------------------------|
6-555-3-555-3-555-3-7-7-7~---------------------------------|

Chorus:
Both Guitars
1-----------------------------------------------------------|
2-----------------------------------------------------------|
3-----------------------------------------------------------|
4-------------------------------------------------------xxx-|
5-------------------------------------------------------xxx-|
6-00-0000-000000-00-0000-0-3/6~-0-0000-000000-00-0000-0-xxx-|

1------------------------------------------------------------|
2------------------------------------------------------------|
3------------------------------------------------------------|
4------------------------------------------------------------|
5--------------------------------------------5-4-3-2-0-------|
6-00-0000-000000-00-0000-0-3/6~-0-0000-00000-----------6-3-0-|

Guitar 1
1----------------------------------------------------------|
2----------------------------------------------------------|
3----------------------------------------------------------|
4-5555555555555555-3-3\0~----------------------------------|
5-5555555555555555-3-3\0~----------------------------------|
6-5555555555555555-3-3\0~----------------------------------|

Guitar 2
1----------------------------------------------------------|
2-13b15--15b18--17b20--19b21~------------------------------|
3----------------------------------------------------------|
4----------------------------------------------------------|
5----------------------------------------------------------|
6----------------------------------------------------------|

Outro:
Guitar 1
1----------------------------------------------------------|
2----------------------------------------------------------|
3----------------------------------------------------------|
4-0-00-0-000-000-00------000-0-000-0-----------------------|
5-0-00-0-000-000-00------000-0-000-0-5-4-3-2-0-------------|
6-0-00-0-000-000-00-3/6~-000-0-000-0-----------6-3-0-------|

Guitar 2
1----------------------------------------------------------|
2-5-77-5-77-5-77-5-77/11~-5-77-5-77-5-77-5-77/11~----------|
3----------------------------------------------------------|
4----------------------------------------------------------|
5----------------------------------------------------------|
6----------------------------------------------------------|

Guitar 1
1----------------------------------------------------------|
2----------------------------------------------------------|
3----------------------------------------------------------|
4--0~-0-3~-0-0-0-3/10-0~-0-3~-12-11-9-6-5-3----------------|
5--0~-0-3~-0-0-0-3/10-0~-0-3~-12-11-9-6-5-3----------------|
6--0~-0-3~-0-0-0-3/10-0~-0-3~-12-11-9-6-5-3----------------|

1----------------------------------------------------------|
2----------------------------------------------------------|
3----------------------------------------------------------|
4--0~-0-3~-0-0-0-3/10-0~-0-3~-12-11-9-6-5-3-12-11-9-6-5-3--|
5--0~-0-3~-0-0-0-3/10-0~-0-3~-12-11-9-6-5-3-12-11-9-6-5-3--|
6--0~-0-3~-0-0-0-3/10-0~-0-3~-12-11-9-6-5-3-12-11-9-6-5-3--|

Guitar 2
1----------------------------------------------------------|
2----------------------------------------------------------|
3------13gb15-13gb15-13gb15--------------------------------|
4-----------------------------12-11-9-6-5-3-12-11-9-6-5-3--|
5-----------------------------12-11-9-6-5-3-12-11-9-6-5-3--|
6-----------------------------12-11-9-6-5-3-12-11-9-6-5-3--|

Both Guitars
1----------------------------------------------------------|
2----------------------------------------------------------|
3----------------------------------------------------------|
4--0~~~~~~~~~~~~~~~~~~~~~~~~~~~~~~-------------------------|
5--0~~~~~~~~~~~~~~~~~~~~~~~~~~~~~~-------------------------|
6--0~~~~~~~~~~~~~~~~~~~~~~~~~~~~~~-------------------------|

END

Tab Legend:
.=Palm Mute
/=Slide Down Neck
\=Slide Up Neck
b=Bend
gb=Gradually Bend
~= Either Vibrato or Let Ring
x=Mute Strings

            
            
Suggest correction
Creating personal tab
Creating personal tab
You can edit any tab online and save it as your Personal.

You can edit, replace or remove any tab part or add personal notes – all changes will be seen only by you.

Personal tabs can be accessed anytime from any device, even offline.
Learn more »
comments
print report bad tab
guest
You may want to rate the tab now too:
select rating
Wanna post a correction for this tab? Suggest correction