Oops, an error
Loading. Please wait.

No Way Out tab

version 2
version 2

Whole song

1,279 views 1 this week
2 commentsread comments
1 2 3 4 5
1 last vote to show rating
add to favorites
×
Save as Personal and add changes to this tab that will be seen only by you. Learn more ›
×
You can save this tab as Personal to edit and correct it or add notes. All changes will be seen only by you. Learn more »
launch autoscroll
font size
0
reset
how to read this tab
guitar tuner
edit
Autoscroll
slow
fast
+/-
esc
set tempo
stop
No Way Out
Theory of A Deadman
Gasoline (2005)

No Way Out:  written by Tyler Connolly, Dean Back, and Dave Brenner

NOTE:  I could not figure out the solo, but all of the rest is there.

GTR I - Drop Db Tuning (eb,Bb,Gb,Db,Ab,Db)
GTR II - Drop Db Tuning (eb,Bb,Gb,Db,Ab,Db)
GTR III - Drop Db Tuning (eb,Bb,Gb,Db,Ab,Db)

Intro

   GTR I (Distortion)
eb|-------------------------------------------------|
Bb|-------------------------------------------------|
Gb|--5----------------------------------------------|
Db|--5-----------------------4----------------------|
Ab|--3-----------------------4----------------------|
Db|--------------------------4----------------------|
  |
  |GTR II (Distortion)
eb|-------------------------------------------------|
Bb|-------------------------------------------------|
Gb|--5----------------------------------------------|
Db|--5-----------------------4----------------------|
Ab|--3-----------------------4----------------------|
Db|--------------------------4----------------------|

   GTR I 
eb|-------------------------------------------------|
Bb|-------------------------------------------------|
Gb|-------------------------------------------------|
Db|--3-----------------------------------------1--1-|
Ab|--3-----------------------------------------1--1-|
Db|--3-----------------------------------------1--1-|
  |
  |GTR II 
eb|-------------------------------------------------|
Bb|-------------------------------------------------|
Gb|-------------------------------------------------|
Db|--3-----------------------------------------1--1-|
Ab|--3-----------------------------------------1--1-|
Db|--3-----------------------------------------1--1-|

Pre Verse

   GTR I 
eb|-------------------------------------------------|
Bb|-------------------------------------------------|
Gb|--5-----------------------5----------------------|
Db|--5-----------------------5----------------------|
Ab|--3-----4--3--1--3--1-----3-----4--3--1--3b------|
Db|--------4--3--1--3--1-----------4--3--1--3b------|
  |
  |GTR II 
eb|-------------------------------------------------|
Bb|-------------------------------------------------|
Gb|--5-----------------------5----------------------|
Db|--5-----------------------5----------------------|
Ab|--3-----4--3--1--3--1-----3-----4--3--1--3b------|
Db|--------4--3--1--3--1-----------4--3--1--3b------|
  |
  |GTR III (Dist. with wah)
eb|-------------------------------------------------|
Bb|-------------------------------------------------|
Gb|--5\---------------------------------------------|
Db|--5\---------------------------------------------|
Ab|--3\---------------------------------------------|
Db|-------------------------------------------------|

   GTR I 
eb|-------------------------------------------------|
Bb|-------------------------------------------------|
Gb|--5-----------------------5----------------------|
Db|--5-----------------------5----------------------|
Ab|--3-----4--3--1--3--1-----3-----4--3--1----------|
Db|--------4--3--1--3--1-----------4--3--1----------|
  |
  |GTR II 
eb|-------------------------------------------------|
Bb|-------------------------------------------------|
Gb|--5-----------------------5----------------------|
Db|--5-----------------------5----------------------|
Ab|--3-----4--3--1--3--1-----3-----4--3--1----------|
Db|--------4--3--1--3--1-----------4--3--1----------|
  |
  |GTR III 
eb|-------------------------------------------------|
Bb|-------------------------------------------------|
Gb|--5\---------------------------------------------|
Db|--5\---------------------------------------------|
Ab|--3\---------------------------------------------|
Db|-------------------------------------------------|

   GTR I 
eb|-------------------------------------------------|
Bb|-------------------------------------------------|
Gb|--5-----------------------5----------------------|
Db|--5-----------------------5----------------------|
Ab|--3-----4--3--1--3--1-----3-----4--3--1--3b------|
Db|--------4--3--1--3--1-----------4--3--1--3b------|
  |
  |GTR II 
eb|-------------------------------------------------|
Bb|-------------------------------------------------|
Gb|/15----15-15-15-15-15-15-15-15-15-15-15-15/17----|
Db|-------------------------------------------------|
Ab|-------------------------------------------------|
Db|-------------------------------------------------|
  |
  |GTR III 
eb|-------------------------------------------------|
Bb|-------------------------------------------------|
Gb|--5\---------------------------------------------|
Db|--5\---------------------------------------------|
Ab|--3\---------------------------------------------|
Db|-------------------------------------------------|

   GTR I 
eb|-------------------------------------------------|
Bb|-------------------------------------------------|
Gb|--5-----------------------5----------------------|
Db|--5-----------------------5----------------------|
Ab|--3-----4--3--1--3--1-----3-----4--3--1----------|
Db|--------4--3--1--3--1-----------4--3--1----------|
  |
  |GTR II 
eb|-------------------------------------------------|
Bb|-------------------------------------------------|
Gb|/15----15-15-15-15-15-15-15-15-15-14-12~\--------|
Db|-------------------------------------------------|
Ab|-------------------------------------------------|
Db|-------------------------------------------------|
  |
  |GTR III 
eb|-------------------------------------------------|
Bb|-------------------------------------------------|
Gb|--5\---------------------------------------------|
Db|--5\---------------------------------------------|
Ab|--3\---------------------------------------------|
Db|-------------------------------------------------|

Verse

   GTR I 
eb|-------------------------------------------------|
Bb|-------------------------------------------------|
Gb|-------------------------------------------------|
Db|-------------------------------------------------|
Ab|-------------------------------------------------|
Db|-------------------------------------------------|
  |
  |GTR II 
eb|-------------------------------------------------|
Bb|-------------------------------------------------|
Gb|-------------------------------------------------|
Db|-------------------------------------------------|
Ab|-------------------------------------------------|
Db|-------------------------------------------------|

   GTR I 
eb|-------------------------------------------------|
Bb|-------------------------------------------------|
Gb|-------------------------------------------------|
Db|-------------------------------------------------|
Ab|-------------------------------------------------|
Db|-------------------------------------------------|
  |
  |GTR II 
eb|-------------------------------------------------|
Bb|-------------------------------------------------|
Gb|-------------------------------------------------|
Db|-------------------------------------------------|
Ab|-------------------------------------------------|
Db|-------------------------------------------------|

   GTR I 
eb|-------------------------------------------------|
Bb|-------------------------------------------------|
Gb|-------------------------------------------------|
Db|-------------------------------------------------|
Ab|-------------------------------------------------|
Db|-------------------------------------------------|
  |
  |GTR II 
eb|-------------------------------------------------|
Bb|-------------------------------------------------|
Gb|-------------------------------------------------|
Db|-------------------------------------------------|
Ab|-------------------------------------------------|
Db|-------------------------------------------------|

   GTR I 
eb|-------------------------------------------------|
Bb|-------------------------------------------------|
Gb|-------------------------------------------------|
Db|--------------------------------x--x--x--x--x--x-|
Ab|--------------------------------x--x--x--x--x--x-|
Db|--------------------------------x--x--x--x--x--x-|
  |
  |GTR II 
eb|-------------------------------------------------|
Bb|-------------------------------------------------|
Gb|-------------------------------------------------|
Db|--------------------------------x--x--x--x--x--x-|
Ab|--------------------------------x--x--x--x--x--x-|
Db|--------------------------------x--x--x--x--x--x-|

   GTR I 
eb|-------------------------------------------------|
Bb|-------------------------------------------------|
Gb|--5----------------------------------------------|
Db|--5----------------------------------------------|
Ab|--3-----4--3--1--3--1--1--3-----0--1--1-----0----|
Db|--------4--3--1--3--1--1--3-----0--1--1-----0----|
  |
  |GTR II 
eb|-------------------------------------------------|
Bb|-------------------------------------------------|
Gb|--5----------------------------------------------|
Db|--5----------------------------------------------|
Ab|--3-----4--3--1--3--1--1--3-----0--1--1-----0----|
Db|--------4--3--1--3--1--1--3-----0--1--1-----0----|

   GTR I 
eb|-------------------------------------------------|
Bb|-------------------------------------------------|
Gb|--5----------------------------------------------|
Db|--5----------------------------------------------|
Ab|--3-----4--3--1--3--1--1--3-----0--1--1-----0----|
Db|--------4--3--1--3--1--1--3-----0--1--1-----0----|
  |
  |GTR II 
eb|-------------------------------------------------|
Bb|-------------------------------------------------|
Gb|--5----------------------------------------------|
Db|--5----------------------------------------------|
Ab|--3-----4--3--1--3--1--1--3-----0--1--1-----0----|
Db|--------4--3--1--3--1--1--3-----0--1--1-----0----|

   GTR I 
eb|-------------------------------------------------|
Bb|-------------------------------------------------|
Gb|--5----------------------------------------------|
Db|--5----------------------------------------------|
Ab|--3-----4--3--1--3--1--1--3-----0--1--1-----0----|
Db|--------4--3--1--3--1--1--3-----0--1--1-----0----|
  |
  |GTR II 
eb|-------------------------------------------------|
Bb|-------------------------------------------------|
Gb|--5----------------------------------------------|
Db|--5----------------------------------------------|
Ab|--3-----4--3--1--3--1--1--3-----0--1--1-----0----|
Db|--------4--3--1--3--1--1--3-----0--1--1-----0----|

   GTR I 
eb|-------------------------------------------------|
Bb|-------------------------------------------------|
Gb|--5----------------------------------------------|
Db|--5--------------------------------------------x-|
Ab|--3-----4--3--1--3--1--1-----------------------x-|
Db|--------4--3--1--3--1--1--3b-------3b----3b----x-|
  |
  |GTR II 
eb|-------------------------------------------------|
Bb|-------------------------------------------------|
Gb|--5----------------------------------------------|
Db|--5--------------------------------------------x-|
Ab|--3-----4--3--1--3--1--1-----------------------x-|
Db|--------4--3--1--3--1--1--3b-------3b----3b----x-|

Pre Chorus

   GTR I 
eb|-------------------------------------------------|
Bb|-------------------------------------------------|
Gb|-------------------------------------------------|
Db|--3--------3--6-----8-----9-----9--8--6--3-----6-|
Ab|--3--------3--6-----8-----9-----9--8--6--3-----6-|
Db|--3--------3--6-----8-----9-----9--8--6--3-----6-|
  |
  |GTR II 
eb|-------------------------------------------------|
Bb|-------------------------------------------------|
Gb|-------------------------------------------------|
Db|--3--------3--6-----8-----9-----9--8--6--3-----6-|
Ab|--3--------3--6-----8-----9-----9--8--6--3-----6-|
Db|--3--------3--6-----8-----9-----9--8--6--3-----6-|

   GTR I 
eb|-------------------------------------------------|
Bb|-------------------------------------------------|
Gb|-------------------------------------------------|
Db|--3--------3--6-----8-----9-----9--8--6--3-----6-|
Ab|--3--------3--6-----8-----9-----9--8--6--3-----6-|
Db|--3--------3--6-----8-----9-----9--8--6--3-----6-|
  |
  |GTR II 
eb|-------------------------------------------------|
Bb|-------------------------------------------------|
Gb|-------------------------------------------------|
Db|--3--------3--6-----8-----9-----9--8--6--3-----6-|
Ab|--3--------3--6-----8-----9-----9--8--6--3-----6-|
Db|--3--------3--6-----8-----9-----9--8--6--3-----6-|
  |
  |GTR III (Dist. with Wah)
eb|-------------------------------------------------|
Bb|-------------------------------------------------|
Gb|-----------------------------------------------6-|
Db|-----------------------------------------------6-|
Ab|-----------------------------------------------8-|
Db|-------------------------------------------------|

   GTR I 
eb|-------------------------------------------------|
Bb|-------------------------------------------------|
Gb|-------------------------------------------------|
Db|--3--------3--6-----8-----9-----9--8--6--3-----6-|
Ab|--3--------3--6-----8-----9-----9--8--6--3-----6-|
Db|--3--------3--6-----8-----9-----9--8--6--3-----6-|
  |
  |GTR II 
eb|-------------------------------------------------|
Bb|-------------------------------------------------|
Gb|-------------------------------------------------|
Db|--3--------3--6-----8-----9-----9--8--6--3-----6-|
Ab|--3--------3--6-----8-----9-----9--8--6--3-----6-|
Db|--3--------3--6-----8-----9-----9--8--6--3-----6-|
  |
  |GTR III 
eb|-------------------------------------------------|
Bb|-------------------------------------------------|
Gb|-10\---------------------------------------------|
Db|-10\---------------------------------------------|
Ab|--8\---------------------------------------------|
Db|-------------------------------------------------|

   GTR I 
eb|-------------------------------------------------|
Bb|-------------------------------------------------|
Gb|-------------------------------------------------|
Db|--3--------3--6-----8-----9-----9--8--6--3-----6-|
Ab|--3--------3--6-----8-----9-----9--8--6--3-----6-|
Db|--3--------3--6-----8-----9-----9--8--6--3-----6-|
  |
  |GTR II 
eb|-------------------------------------------------|
Bb|-------------------------------------------------|
Gb|-------------------------------------------------|
Db|--3--------3--6-----8-----9-----9--8--6--3-----6-|
Ab|--3--------3--6-----8-----9-----9--8--6--3-----6-|
Db|--3--------3--6-----8-----9-----9--8--6--3-----6-|

Pre Verse

   GTR I 
eb|-------------------------------------------------|
Bb|-------------------------------------------------|
Gb|--5-----------------------5----------------------|
Db|--5-----------------------5----------------------|
Ab|--3-----4--3--1--3--1-----3-----4--3--1--3b------|
Db|--------4--3--1--3--1-----------4--3--1--3b------|
  |
  |GTR II 
eb|-------------------------------------------------|
Bb|-------------------------------------------------|
Gb|/15----15-15-15-15-15-15-15-15-15-15-15-15/17----|
Db|-------------------------------------------------|
Ab|-------------------------------------------------|
Db|-------------------------------------------------|
  |
  |GTR III 
eb|-------------------------------------------------|
Bb|-------------------------------------------------|
Gb|--5\---------------------------------------------|
Db|--5\---------------------------------------------|
Ab|--3\---------------------------------------------|
Db|-------------------------------------------------|

   GTR I 
eb|-------------------------------------------------|
Bb|-------------------------------------------------|
Gb|--5-----------------------5----------------------|
Db|--5-----------------------5----------------------|
Ab|--3-----4--3--1--3--1-----3-----4--3--1----------|
Db|--------4--3--1--3--1-----------4--3--1----------|
  |
  |GTR II 
eb|-------------------------------------------------|
Bb|-------------------------------------------------|
Gb|/15----15-15-15-15-15-15-15-15-15-14-12~\--------|
Db|-------------------------------------------------|
Ab|-------------------------------------------------|
Db|-------------------------------------------------|
  |
  |GTR III 
eb|-------------------------------------------------|
Bb|-------------------------------------------------|
Gb|--5\---------------------------------------------|
Db|--5\---------------------------------------------|
Ab|--3\---------------------------------------------|
Db|-------------------------------------------------|

Verse

   GTR I 
eb|-------------------------------------------------|
Bb|-------------------------------------------------|
Gb|-------------------------------------------------|
Db|-------------------------------------------------|
Ab|-------------------------------------------------|
Db|-------------------------------------------------|
  |
  |GTR II 
eb|-------------------------------------------------|
Bb|-------------------------------------------------|
Gb|-------------------------------------------------|
Db|-------------------------------------------------|
Ab|-------------------------------------------------|
Db|-------------------------------------------------|

   GTR I 
eb|-------------------------------------------------|
Bb|-------------------------------------------------|
Gb|-------------------------------------------------|
Db|-------------------------------------------------|
Ab|-------------------------------------------------|
Db|-------------------------------------------------|
  |
  |GTR II 
eb|-------------------------------------------------|
Bb|-------------------------------------------------|
Gb|-------------------------------------------------|
Db|-------------------------------------------------|
Ab|-------------------------------------------------|
Db|-------------------------------------------------|

   GTR I 
eb|-------------------------------------------------|
Bb|-------------------------------------------------|
Gb|-------------------------------------------------|
Db|-------------------------------------------------|
Ab|-------------------------------------------------|
Db|-------------------------------------------------|
  |
  |GTR II 
eb|-------------------------------------------------|
Bb|-------------------------------------------------|
Gb|-------------------------------------------------|
Db|-------------------------------------------------|
Ab|-------------------------------------------------|
Db|-------------------------------------------------|

   GTR I 
eb|-------------------------------------------------|
Bb|-------------------------------------------------|
Gb|-------------------------------------------------|
Db|--------------------------------x--x--x--x--x--x-|
Ab|--------------------------------x--x--x--x--x--x-|
Db|--------------------------------x--x--x--x--x--x-|
  |
  |GTR II 
eb|-------------------------------------------------|
Bb|-------------------------------------------------|
Gb|-------------------------------------------------|
Db|--------------------------------x--x--x--x--x--x-|
Ab|--------------------------------x--x--x--x--x--x-|
Db|--------------------------------x--x--x--x--x--x-|

   GTR I 
eb|-------------------------------------------------|
Bb|-------------------------------------------------|
Gb|--5----------------------------------------------|
Db|--5----------------------------------------------|
Ab|--3-----4--3--1--3--1--1--3-----0--1--1-----0----|
Db|--------4--3--1--3--1--1--3-----0--1--1-----0----|
  |
  |GTR II 
eb|-------------------------------------------------|
Bb|-------------------------------------------------|
Gb|--5----------------------------------------------|
Db|--5----------------------------------------------|
Ab|--3-----4--3--1--3--1--1--3-----0--1--1-----0----|
Db|--------4--3--1--3--1--1--3-----0--1--1-----0----|

   GTR I 
eb|-------------------------------------------------|
Bb|-------------------------------------------------|
Gb|--5----------------------------------------------|
Db|--5----------------------------------------------|
Ab|--3-----4--3--1--3--1--1--3-----0--1--1-----0----|
Db|--------4--3--1--3--1--1--3-----0--1--1-----0----|
  |
  |GTR II 
eb|-------------------------------------------------|
Bb|-------------------------------------------------|
Gb|--5----------------------------------------------|
Db|--5----------------------------------------------|
Ab|--3-----4--3--1--3--1--1--3-----0--1--1-----0----|
Db|--------4--3--1--3--1--1--3-----0--1--1-----0----|

   GTR I 
eb|-------------------------------------------------|
Bb|-------------------------------------------------|
Gb|--5----------------------------------------------|
Db|--5----------------------------------------------|
Ab|--3-----4--3--1--3--1--1--3-----0--1--1-----0----|
Db|--------4--3--1--3--1--1--3-----0--1--1-----0----|
  |
  |GTR II 
eb|-------------------------------------------------|
Bb|-------------------------------------------------|
Gb|--5----------------------------------------------|
Db|--5----------------------------------------------|
Ab|--3-----4--3--1--3--1--1--3-----0--1--1-----0----|
Db|--------4--3--1--3--1--1--3-----0--1--1-----0----|

   GTR I 
eb|-------------------------------------------------|
Bb|-------------------------------------------------|
Gb|--5----------------------------------------------|
Db|--5--------------------------------------------x-|
Ab|--3-----4--3--1--3--1--1-----------------------x-|
Db|--------4--3--1--3--1--1--3b-------3b----3b----x-|
  |
  |GTR II 
eb|-------------------------------------------------|
Bb|-------------------------------------------------|
Gb|--5----------------------------------------------|
Db|--5--------------------------------------------x-|
Ab|--3-----4--3--1--3--1--1-----------------------x-|
Db|--------4--3--1--3--1--1--3b-------3b----3b----x-|

Pre Chorus

   GTR I 
eb|-------------------------------------------------|
Bb|-------------------------------------------------|
Gb|-------------------------------------------------|
Db|--3--------3--6-----8-----9-----9--8--6--3-----6-|
Ab|--3--------3--6-----8-----9-----9--8--6--3-----6-|
Db|--3--------3--6-----8-----9-----9--8--6--3-----6-|
  |
  |GTR II 
eb|-------------------------------------------------|
Bb|-------------------------------------------------|
Gb|-------------------------------------------------|
Db|--3--------3--6-----8-----9-----9--8--6--3-----6-|
Ab|--3--------3--6-----8-----9-----9--8--6--3-----6-|
Db|--3--------3--6-----8-----9-----9--8--6--3-----6-|

   GTR I 
eb|-------------------------------------------------|
Bb|-------------------------------------------------|
Gb|-------------------------------------------------|
Db|--3--------3--6-----8-----9-----9--8--6--3-----6-|
Ab|--3--------3--6-----8-----9-----9--8--6--3-----6-|
Db|--3--------3--6-----8-----9-----9--8--6--3-----6-|
  |
  |GTR II 
eb|-------------------------------------------------|
Bb|-------------------------------------------------|
Gb|-------------------------------------------------|
Db|--3--------3--6-----8-----9-----9--8--6--3-----6-|
Ab|--3--------3--6-----8-----9-----9--8--6--3-----6-|
Db|--3--------3--6-----8-----9-----9--8--6--3-----6-|
  |
  |GTR III (Dist. with Wah)
eb|-------------------------------------------------|
Bb|-------------------------------------------------|
Gb|-----------------------------------------------6-|
Db|-----------------------------------------------6-|
Ab|-----------------------------------------------8-|
Db|-------------------------------------------------|

   GTR I 
eb|-------------------------------------------------|
Bb|-------------------------------------------------|
Gb|-------------------------------------------------|
Db|--3--------3--6-----8-----9-----9--8--6--3-----6-|
Ab|--3--------3--6-----8-----9-----9--8--6--3-----6-|
Db|--3--------3--6-----8-----9-----9--8--6--3-----6-|
  |
  |GTR II 
eb|-------------------------------------------------|
Bb|-------------------------------------------------|
Gb|-------------------------------------------------|
Db|--3--------3--6-----8-----9-----9--8--6--3-----6-|
Ab|--3--------3--6-----8-----9-----9--8--6--3-----6-|
Db|--3--------3--6-----8-----9-----9--8--6--3-----6-|
  |
  |GTR III 
eb|-------------------------------------------------|
Bb|-------------------------------------------------|
Gb|-10\---------------------------------------------|
Db|-10\---------------------------------------------|
Ab|--8\---------------------------------------------|
Db|-------------------------------------------------|

   GTR I 
eb|-------------------------------------------------|
Bb|-------------------------------------------------|
Gb|-------------------------------------------------|
Db|--3--------3--6-----8-----9-----9--8--6--3-----6-|
Ab|--3--------3--6-----8-----9-----9--8--6--3-----6-|
Db|--3--------3--6-----8-----9-----9--8--6--3-----6-|
  |
  |GTR II 
eb|-------------------------------------------------|
Bb|-------------------------------------------------|
Gb|-------------------------------------------------|
Db|--3--------3--6-----8-----9-----9--8--6--3-----6-|
Ab|--3--------3--6-----8-----9-----9--8--6--3-----6-|
Db|--3--------3--6-----8-----9-----9--8--6--3-----6-|

Chorus

   GTR I 
eb|-------------------------------------------------|
Bb|-------------------------------------------------|
Gb|--5--5--5--5--5--5--5--5--5--5--5--5-------------|
Db|--5--5--5--5--5--5--5--5--5--5--5--5--x-----3----|
Ab|--3--3--3--3--3--3--3--3--3--3--3--3--x-----3----|
Db|--------------------------------------x-----3----|
  |
  |GTR II 
eb|-------------------------------------------------|
Bb|-------------------------------------------------|
Gb|--5--5--5--5--5--5--5--5--5--5--5--5-------------|
Db|--5--5--5--5--5--5--5--5--5--5--5--5--x-----3----|
Ab|--3--3--3--3--3--3--3--3--3--3--3--3--x-----3----|
Db|--------------------------------------x-----3----|

   GTR I 
eb|-------------------------------------------------|
Bb|-------------------------------------------------|
Gb|--------------------------------------------3----|
Db|--1--1--1--1--1--1--1--1--1--1--1--1--x-----3----|
Ab|--1--1--1--1--1--1--1--1--1--1--1--1--x-----1----|
Db|--1--1--1--1--1--1--1--1--1--1--1--1--x----------|
  |
  |GTR II 
eb|-------------------------------------------------|
Bb|-------------------------------------------------|
Gb|--------------------------------------------3----|
Db|--1--1--1--1--1--1--1--1--1--1--1--1--x-----3----|
Ab|--1--1--1--1--1--1--1--1--1--1--1--1--x-----1----|
Db|--1--1--1--1--1--1--1--1--1--1--1--1--x----------|

   GTR I 
eb|-------------------------------------------------|
Bb|-------------------------------------------------|
Gb|--5--5--5--5--5--5--5--5--5--5--5--5-------------|
Db|--5--5--5--5--5--5--5--5--5--5--5--5--x-----3----|
Ab|--3--3--3--3--3--3--3--3--3--3--3--3--x-----3----|
Db|--------------------------------------x-----3----|
  |
  |GTR II 
eb|-------------------------------------------------|
Bb|-------------------------------------------------|
Gb|--5--5--5--5--5--5--5--5--5--5--5--5-------------|
Db|--5--5--5--5--5--5--5--5--5--5--5--5--x-----3----|
Ab|--3--3--3--3--3--3--3--3--3--3--3--3--x-----3----|
Db|--------------------------------------x-----3----|

   GTR I 
eb|-------------------------------------------------|
Bb|-------------------------------------------------|
Gb|--------------------------------------------3----|
Db|--1--1--1--1--1--1--1--1--1--1--1--1--x-----3----|
Ab|--1--1--1--1--1--1--1--1--1--1--1--1--x-----1----|
Db|--1--1--1--1--1--1--1--1--1--1--1--1--x----------|
  |
  |GTR II 
eb|-------------------------------------------------|
Bb|-------------------------------------------------|
Gb|--------------------------------------------3----|
Db|--1--1--1--1--1--1--1--1--1--1--1--1--x-----3----|
Ab|--1--1--1--1--1--1--1--1--1--1--1--1--x-----1----|
Db|--1--1--1--1--1--1--1--1--1--1--1--1--x----------|

   GTR I 
eb|-------------------------------------------------|
Bb|-------------------------------------------------|
Gb|--5--5--5--5--5--5--5--5--5--5--5--5-------------|
Db|--5--5--5--5--5--5--5--5--5--5--5--5--x-----3----|
Ab|--3--3--3--3--3--3--3--3--3--3--3--3--x-----3----|
Db|--------------------------------------x-----3----|
  |
  |GTR II 
eb|-------------------------------------------------|
Bb|-------------------------------------------------|
Gb|--5--5--5--5--7--7--7--7--8--8--8--8-10-10-10-10-|
Db|--x--x--x--x--x--x--x--x--x--x--x--x--x--x--x--x-|
Ab|--3--3--3--3--5--5--5--5--6--6--6--6--8--8--8--8-|
Db|-------------------------------------------------|

   GTR I 
eb|-------------------------------------------------|
Bb|-------------------------------------------------|
Gb|--------------------------------------------3----|
Db|--1--1--1--1--1--1--1--1--1--1--1--1--x-----3----|
Ab|--1--1--1--1--1--1--1--1--1--1--1--1--x-----1----|
Db|--1--1--1--1--1--1--1--1--1--1--1--1--x----------|
  |
  |GTR II 
eb|-------------------------------------------------|
Bb|-------------------------------------------------|
Gb|-12-12-12-12-12-12-12-12-12-12-12-12-12-12-12-12-|
Db|--x--x--x--x--x--x--x--x--x--x--x--x--x--x--x--x-|
Ab|-10-10-10-10-10-10-10-10-10-10-10-10-10-10-10-10-|
Db|-------------------------------------------------|

Intro

   GTR I 
eb|-------------------------------------------------|
Bb|-------------------------------------------------|
Gb|--5----------------------------------------------|
Db|--5-----------------------4----------------------|
Ab|--3-----------------------4----------------------|
Db|--------------------------4----------------------|
  |
  |GTR II (Distortion)
eb|-------------------------------------------------|
Bb|-------------------------------------------------|
Gb|--5----------------------------------------------|
Db|--5-----------------------4----------------------|
Ab|--3-----------------------4----------------------|
Db|--------------------------4----------------------|

   GTR I 
eb|-------------------------------------------------|
Bb|-------------------------------------------------|
Gb|-------------------------------------------------|
Db|--3-----------------------------------------1--1-|
Ab|--3-----------------------------------------1--1-|
Db|--3-----------------------------------------1--1-|
  |
  |GTR II 
eb|-------------------------------------------------|
Bb|-------------------------------------------------|
Gb|-------------------------------------------------|
Db|--3-----------------------------------------1--1-|
Ab|--3-----------------------------------------1--1-|
Db|--3-----------------------------------------1--1-|

Solo

   GTR I 
eb|-------------------------------------------------|
Bb|-------------------------------------------------|
Gb|--5----------------------------------------------|
Db|--5----------------------------------------------|
Ab|--3-----4--3--1--3--1--1--3-----0--1--1-----0----|
Db|--------4--3--1--3--1--1--3-----0--1--1-----0----|
  |
  |GTR II 
eb|-------------------------------------------------|
Bb|-------------------------------------------------|
Gb|--5----------------------------------------------|
Db|--5----------------------------------------------|
Ab|--3-----4--3--1--3--1--1--3-----0--1--1-----0----|
Db|--------4--3--1--3--1--1--3-----0--1--1-----0----|
  |
  |GTR III (Dist. with Wah)
eb|-------------------------------------------------|
Bb|-------------------------------------------------|
Gb|-------------------------------------------------|
Db|-------------------------------------------------|
Ab|-------------------------------------------------|
Db|-------------------------------------------------|

   GTR I 
eb|-------------------------------------------------|
Bb|-------------------------------------------------|
Gb|--5----------------------------------------------|
Db|--5----------------------------------------------|
Ab|--3-----4--3--1--3--1--1--3-----0--1--1-----0----|
Db|--------4--3--1--3--1--1--3-----0--1--1-----0----|
  |
  |GTR II 
eb|-------------------------------------------------|
Bb|-------------------------------------------------|
Gb|--5----------------------------------------------|
Db|--5----------------------------------------------|
Ab|--3-----4--3--1--3--1--1--3-----0--1--1-----0----|
Db|--------4--3--1--3--1--1--3-----0--1--1-----0----|
  |
  |GTR III
eb|-------------------------------------------------|
Bb|-------------------------------------------------|
Gb|-------------------------------------------------|
Db|-------------------------------------------------|
Ab|-------------------------------------------------|
Db|-------------------------------------------------|

   GTR I 
eb|-------------------------------------------------|
Bb|-------------------------------------------------|
Gb|--7----------------------------------------------|
Db|--7----------------------------------------------|
Ab|--5-----6--5--3--5--3--3--5-----2--3--3-----2----|
Db|--------6--5--3--5--3--3--5-----2--3--3-----2----|
  |
  |GTR II 
eb|-------------------------------------------------|
Bb|-------------------------------------------------|
Gb|--7----------------------------------------------|
Db|--7----------------------------------------------|
Ab|--5-----6--5--3--5--3--3--5-----2--3--3-----2----|
Db|--------6--5--3--5--3--3--5-----2--3--3-----2----|
  |
  |GTR III
eb|-------------------------------------------------|
Bb|-------------------------------------------------|
Gb|-------------------------------------------------|
Db|-------------------------------------------------|
Ab|-------------------------------------------------|
Db|-------------------------------------------------|

   GTR I
eb|-------------------------------------------------|
Bb|-------------------------------------------------|
Gb|--8----------------------------------------------|
Db|--8--------------------------------------------x-|
Ab|--6-----7--6--4--6--4--4-----------------------x-|
Db|--------7--6--4--6--4--4--6b-------6b----6b----x-|
  |
  |GTR II 
eb|-------------------------------------------------|
Bb|-------------------------------------------------|
Gb|--8----------------------------------------------|
Db|--8--------------------------------------------x-|
Ab|--6-----7--6--4--6--4--4-----------------------x-|
Db|--------7--6--4--6--4--4--6b-------6b----6b----x-|
  |
  |GTR III
eb|-------------------------------------------------|
Bb|-------------------------------------------------|
Gb|-------------------------------------------------|
Db|-------------------------------------------------|
Ab|-------------------------------------------------|
Db|-------------------------------------------------|

Pre Chorus

   GTR I 
eb|-------------------------------------------------|
Bb|-------------------------------------------------|
Gb|-------------------------------------------------|
Db|--3--------3--6-----8-----9-----9--8--6--3-----6-|
Ab|--3--------3--6-----8-----9-----9--8--6--3-----6-|
Db|--3--------3--6-----8-----9-----9--8--6--3-----6-|
  |
  |GTR II 
eb|-------------------------------------------------|
Bb|-------------------------------------------------|
Gb|-------------------------------------------------|
Db|--3--------3--6-----8-----9-----9--8--6--3-----6-|
Ab|--3--------3--6-----8-----9-----9--8--6--3-----6-|
Db|--3--------3--6-----8-----9-----9--8--6--3-----6-|

   GTR I 
eb|-------------------------------------------------|
Bb|-------------------------------------------------|
Gb|-------------------------------------------------|
Db|--3--------3--6-----8-----9-----9--8--6--3-----6-|
Ab|--3--------3--6-----8-----9-----9--8--6--3-----6-|
Db|--3--------3--6-----8-----9-----9--8--6--3-----6-|
  |
  |GTR II 
eb|-------------------------------------------------|
Bb|-------------------------------------------------|
Gb|-------------------------------------------------|
Db|--3--------3--6-----8-----9-----9--8--6--3-----6-|
Ab|--3--------3--6-----8-----9-----9--8--6--3-----6-|
Db|--3--------3--6-----8-----9-----9--8--6--3-----6-|
  |
  |GTR III (Dist. with Wah)
eb|-------------------------------------------------|
Bb|-------------------------------------------------|
Gb|-----------------------------------------------6-|
Db|-----------------------------------------------6-|
Ab|-----------------------------------------------8-|
Db|-------------------------------------------------|

   GTR I 
eb|-------------------------------------------------|
Bb|-------------------------------------------------|
Gb|-------------------------------------------------|
Db|--3--------3--6-----8-----9-----9--8--6--3-----6-|
Ab|--3--------3--6-----8-----9-----9--8--6--3-----6-|
Db|--3--------3--6-----8-----9-----9--8--6--3-----6-|
  |
  |GTR II 
eb|-------------------------------------------------|
Bb|-------------------------------------------------|
Gb|-------------------------------------------------|
Db|--3--------3--6-----8-----9-----9--8--6--3-----6-|
Ab|--3--------3--6-----8-----9-----9--8--6--3-----6-|
Db|--3--------3--6-----8-----9-----9--8--6--3-----6-|
  |
  |GTR III 
eb|-------------------------------------------------|
Bb|-------------------------------------------------|
Gb|-10\---------------------------------------------|
Db|-10\---------------------------------------------|
Ab|--8\---------------------------------------------|
Db|-------------------------------------------------|

   GTR I 
eb|-------------------------------------------------|
Bb|-------------------------------------------------|
Gb|-------------------------------------------------|
Db|--3--------3--6-----8-----9-----9--8--6--3-----6-|
Ab|--3--------3--6-----8-----9-----9--8--6--3-----6-|
Db|--3--------3--6-----8-----9-----9--8--6--3-----6-|
  |
  |GTR II 
eb|-------------------------------------------------|
Bb|-------------------------------------------------|
Gb|-------------------------------------------------|
Db|--3--------3--6-----8-----9-----9--8--6--3-----6-|
Ab|--3--------3--6-----8-----9-----9--8--6--3-----6-|
Db|--3--------3--6-----8-----9-----9--8--6--3-----6-|

Chorus

   GTR I 
eb|-------------------------------------------------|
Bb|-------------------------------------------------|
Gb|--5--5--5--5--5--5--5--5--5--5--5--5-------------|
Db|--5--5--5--5--5--5--5--5--5--5--5--5--x-----3----|
Ab|--3--3--3--3--3--3--3--3--3--3--3--3--x-----3----|
Db|--------------------------------------x-----3----|
  |
  |GTR II 
eb|-------------------------------------------------|
Bb|-------------------------------------------------|
Gb|--5--5--5--5--5--5--5--5--5--5--5--5-------------|
Db|--5--5--5--5--5--5--5--5--5--5--5--5--x-----3----|
Ab|--3--3--3--3--3--3--3--3--3--3--3--3--x-----3----|
Db|--------------------------------------x-----3----|

   GTR I 
eb|-------------------------------------------------|
Bb|-------------------------------------------------|
Gb|--------------------------------------------3----|
Db|--1--1--1--1--1--1--1--1--1--1--1--1--x-----3----|
Ab|--1--1--1--1--1--1--1--1--1--1--1--1--x-----1----|
Db|--1--1--1--1--1--1--1--1--1--1--1--1--x----------|
  |
  |GTR II 
eb|-------------------------------------------------|
Bb|-------------------------------------------------|
Gb|--------------------------------------------3----|
Db|--1--1--1--1--1--1--1--1--1--1--1--1--x-----3----|
Ab|--1--1--1--1--1--1--1--1--1--1--1--1--x-----1----|
Db|--1--1--1--1--1--1--1--1--1--1--1--1--x----------|

   GTR I 
eb|-------------------------------------------------|
Bb|-------------------------------------------------|
Gb|--5--5--5--5--5--5--5--5--5--5--5--5-------------|
Db|--5--5--5--5--5--5--5--5--5--5--5--5--x-----3----|
Ab|--3--3--3--3--3--3--3--3--3--3--3--3--x-----3----|
Db|--------------------------------------x-----3----|
  |
  |GTR II 
eb|-------------------------------------------------|
Bb|-------------------------------------------------|
Gb|--5--5--5--5--5--5--5--5--5--5--5--5-------------|
Db|--5--5--5--5--5--5--5--5--5--5--5--5--x-----3----|
Ab|--3--3--3--3--3--3--3--3--3--3--3--3--x-----3----|
Db|--------------------------------------x-----3----|

   GTR I 
eb|-------------------------------------------------|
Bb|-------------------------------------------------|
Gb|--------------------------------------------3----|
Db|--1--1--1--1--1--1--1--1--1--1--1--1--x-----3----|
Ab|--1--1--1--1--1--1--1--1--1--1--1--1--x-----1----|
Db|--1--1--1--1--1--1--1--1--1--1--1--1--x----------|
  |
  |GTR II 
eb|-------------------------------------------------|
Bb|-------------------------------------------------|
Gb|--------------------------------------------3----|
Db|--1--1--1--1--1--1--1--1--1--1--1--1--x-----3----|
Ab|--1--1--1--1--1--1--1--1--1--1--1--1--x-----1----|
Db|--1--1--1--1--1--1--1--1--1--1--1--1--x----------|

   GTR I 
eb|-------------------------------------------------|
Bb|-------------------------------------------------|
Gb|--5--5--5--5--5--5--5--5--5--5--5--5-------------|
Db|--5--5--5--5--5--5--5--5--5--5--5--5--x-----3----|
Ab|--3--3--3--3--3--3--3--3--3--3--3--3--x-----3----|
Db|--------------------------------------x-----3----|
  |
  |GTR II 
eb|-------------------------------------------------|
Bb|-------------------------------------------------|
Gb|--5--5--5--5--7--7--7--7--8--8--8--8-10-10-10-10-|
Db|--x--x--x--x--x--x--x--x--x--x--x--x--x--x--x--x-|
Ab|--3--3--3--3--5--5--5--5--6--6--6--6--8--8--8--8-|
Db|-------------------------------------------------|
  |
  |GTR III (Distortion)
eb|-------15-15-------15-15-------15-15-------15-15-|
Bb|-------------------------------------------------|
Gb|-12-12-------12-12-------12-12-------12-12-------|
Db|-------------------------------------------------|
Ab|-------------------------------------------------|
Db|-------------------------------------------------|

   GTR I 
eb|-------------------------------------------------|
Bb|-------------------------------------------------|
Gb|--------------------------------------------3----|
Db|--1--1--1--1--1--1--1--1--1--1--1--1--x-----3----|
Ab|--1--1--1--1--1--1--1--1--1--1--1--1--x-----1----|
Db|--1--1--1--1--1--1--1--1--1--1--1--1--x----------|
  |
  |GTR II 
eb|-------------------------------------------------|
Bb|-------------------------------------------------|
Gb|-12-12-12-12-12-12-12-12-12-12-12-12-12-12-12-12-|
Db|--x--x--x--x--x--x--x--x--x--x--x--x--x--x--x--x-|
Ab|-10-10-10-10-10-10-10-10-10-10-10-10-10-10-10-10-|
Db|-------------------------------------------------|
  |
  |GTR III
eb|-------15-15-------15-15-------15-15-------15-15-|
Bb|-------------------------------------------------|
Gb|-12-12-------12-12-------12-12-------12-12-------|
Db|-------------------------------------------------|
Ab|-------------------------------------------------|
Db|-------------------------------------------------|

   GTR I 
eb|-------------------------------------------------|
Bb|-------------------------------------------------|
Gb|--5--5--5--5--5--5--5--5--5--5--5--5-------------|
Db|--5--5--5--5--5--5--5--5--5--5--5--5--x-----3----|
Ab|--3--3--3--3--3--3--3--3--3--3--3--3--x-----3----|
Db|--------------------------------------x-----3----|
  |
  |GTR II 
eb|-------------------------------------------------|
Bb|-------------------------------------------------|
Gb|--5--5--5--5--5--5--5--5--5--5--5--5-------------|
Db|--5--5--5--5--5--5--5--5--5--5--5--5--x-----3----|
Ab|--3--3--3--3--3--3--3--3--3--3--3--3--x-----3----|
Db|--------------------------------------x-----3----|
  |
  |GTR III
eb|-------15-15-------15-15-------15-15-------15-15-|
Bb|-------------------------------------------------|
Gb|-12-12-------12-12-------12-12-------12-12-------|
Db|-------------------------------------------------|
Ab|-------------------------------------------------|
Db|-------------------------------------------------|

   GTR I 
eb|-------------------------------------------------|
Bb|-------------------------------------------------|
Gb|--------------------------------------------3----|
Db|--1--1--1--1--1--1--1--1--1--1--1--1--x-----3----|
Ab|--1--1--1--1--1--1--1--1--1--1--1--1--x-----1----|
Db|--1--1--1--1--1--1--1--1--1--1--1--1--x----------|
  |
  |GTR II 
eb|-------------------------------------------------|
Bb|-------------------------------------------------|
Gb|--------------------------------------------3----|
Db|--1--1--1--1--1--1--1--1--1--1--1--1--x-----3----|
Ab|--1--1--1--1--1--1--1--1--1--1--1--1--x-----1----|
Db|--1--1--1--1--1--1--1--1--1--1--1--1--x----------|
  |
  |GTR III
eb|-------15-15-------15-15-------15-15-------15-15-|
Bb|-------------------------------------------------|
Gb|-12-12-------12-12-------12-12-------12-12-------|
Db|-------------------------------------------------|
Ab|-------------------------------------------------|
Db|-------------------------------------------------|

   GTR I 
eb|-------------------------------------------------|
Bb|-------------------------------------------------|
Gb|--5--5--5--5--5--5--5--5--5--5--5--5-------------|
Db|--5--5--5--5--5--5--5--5--5--5--5--5--x-----3----|
Ab|--3--3--3--3--3--3--3--3--3--3--3--3--x-----3----|
Db|--------------------------------------x-----3----|
  |
  |GTR II 
eb|-------------------------------------------------|
Bb|-------------------------------------------------|
Gb|--5--5--5--5--7--7--7--7--8--8--8--8-10-10-10-10-|
Db|--x--x--x--x--x--x--x--x--x--x--x--x--x--x--x--x-|
Ab|--3--3--3--3--5--5--5--5--6--6--6--6--8--8--8--8-|
Db|-------------------------------------------------|
  |
  |GTR III
eb|-------15-15-------15-15-------15-15-------15-15-|
Bb|-------------------------------------------------|
Gb|-12-12-------12-12-------12-12-------12-12-------|
Db|-------------------------------------------------|
Ab|-------------------------------------------------|
Db|-------------------------------------------------|

   GTR I 
eb|-------------------------------------------------|
Bb|-------------------------------------------------|
Gb|--------------------------------------------3----|
Db|--1--1--1--1--1--1--1--1--1--1--1--1--x-----3----|
Ab|--1--1--1--1--1--1--1--1--1--1--1--1--x-----1----|
Db|--1--1--1--1--1--1--1--1--1--1--1--1--x----------|
  |
  |GTR II 
eb|-------------------------------------------------|
Bb|-------------------------------------------------|
Gb|-12-12-12-12-12-12-12-12-12-12-12-12-12-12-12-12-|
Db|--x--x--x--x--x--x--x--x--x--x--x--x--x--x--x--x-|
Ab|-10-10-10-10-10-10-10-10-10-10-10-10-10-10-10-10-|
Db|-------------------------------------------------|
  |
  |GTR III
eb|-------15-15-------15-15-------15-15-------15-15-|
Bb|-------------------------------------------------|
Gb|-12-12-------12-12-------12-12-------12-12-------|
Db|-------------------------------------------------|
Ab|-------------------------------------------------|
Db|-------------------------------------------------|

Outro

   GTR I 
eb|-------------------------------------------------|
Bb|-------------------------------------------------|
Gb|--5--5--5--5--5--5--5--5--5--5--5--5--5----------|
Db|--5--5--5--5--5--5--5--5--5--5--5--5--5--x--x--x-|
Ab|--3--3--3--3--3--3--3--3--3--3--3--3--3--x--x--x-|
Db|-----------------------------------------x--x--x-|
  |
  |GTR II 
eb|-------------------------------------------------|
Bb|-------------------------------------------------|
Gb|--5--5--5--5--5--5--5--5--5--5--5--5--5----------|
Db|--5--5--5--5--5--5--5--5--5--5--5--5--5--x--x--x-|
Ab|--3--3--3--3--3--3--3--3--3--3--3--3--3--x--x--x-|
Db|-----------------------------------------x--x--x-|
  |
  |GTR III
eb|-------15-15-------15-15-------15-15-------15-15-|
Bb|-------------------------------------------------|
Gb|-12-12-------12-12-------12-12-------12-12-------|
Db|-------------------------------------------------|
Ab|-------------------------------------------------|
Db|-------------------------------------------------|

   GTR I 
eb|-------------------------------------------------|
Bb|-------------------------------------------------|
Gb|-------------------------------------------------|
Db|--1-----------------------1----------------------|
Ab|--1-----------------------1----------------------|
Db|--1-----------------------1----------------------|
  |
  |GTR II 
eb|-------------------------------------------------|
Bb|-------------------------------------------------|
Gb|-------------------------------------------------|
Db|--1-----------------------1----------------------|
Ab|--1-----------------------1----------------------|
Db|--1-----------------------1----------------------|
  |
  |GTR III
eb|-------15-15-------15-15-------------------------|
Bb|-------------------------------------------------|
Gb|-12-12-------12-12-------12----------------------|
Db|-------------------------------------------------|
Ab|-------------------------------------------------|
Db|-------------------------------------------------|


| /  slide up
| \  slide down
| h  hammer-on
| p  pull-off
| ~  vibrato
| +  harmonic
| x  Mute note
===============================================================================



            
            
Suggest correction
Creating personal tab
Creating personal tab
You can edit any tab online and save it as your Personal.

You can edit, replace or remove any tab part or add personal notes – all changes will be seen only by you.

Personal tabs can be accessed anytime from any device, even offline.
Learn more »
Give kudos to tab author, rate the tab!
1 2 3 4 5
comments
print report bad tab
2 comments total.
0 reply
Daughtryfan497 1,278 Jun 15, 2015 10:53 AM

The tuning was incorrect, it sounds like in Drop B.

guest
You may want to rate the tab now too:
select rating
Wanna post a correction for this tab? Suggest correction