Oops, an error
Loading. Please wait.

Sacrifice tab

2,027 views 1 this week
no commentswrite comment
1 2 3 4 5
3 more votes to show rating
add to favorites
×
Save as Personal and add changes to this tab that will be seen only by you. Learn more ›
×
You can save this tab as Personal to edit and correct it or add notes. All changes will be seen only by you. Learn more »
launch autoscroll
font size
0
reset
how to read this tab
guitar tuner
edit
Autoscroll
slow
fast
+/-
esc
set tempo
stop
Sacrifice
Theory of A Deadman
Scars & Souvenirs (2008)

Sacrifice: written by Tyler Connolly, Dean Back, and Dave Brenner

GTR I - Drop C Tuning "Tyler Connolly" (d,A,F,C,G,C)
GTR II - Drop C Tuning "Dave Brenner" (d,A,F,C,G,C)
GTR III - Drop C Tuning "Solo" (d,A,F,C,G,C)

Intro

  GTR I,II
d|-------------------------------------------------|
A|-------------------------------------------------|
F|-------------------------------------------------|
C|--------------------------------------------5b---|
G|--------------------------------------5--7-------|
C|--------------------------------------5--7-------|
                                        .  .       
                                                   
  GTR I,II
d|-------------------------------------------------|
A|-------------------------------------------------|
F|-------------------------------------------------|
C|--7-----7-----7-----7-----5b----7-----7----------|
C|--7-----7-----7-----7-----------7-----7-----5--7-|
C|--7-----7-----7-----7-----------7-----7-----5--7-|
                                              .  . 

  GTR I,II
d|-------------------------------------------------|
A|-------------------------------------------------|
F|-------------------------------------------------|
C|--5b----7-----------------5b----7-----------5b---|
C|--------7-----5\-3--------------7-----5--7-------|
C|--------7-----------5h-7--------7-----5--7-------|
                      .  .              .  .       

  GTR I
d|-------------------------------------------------|
A|-------------------------------------------------|
F|-------------------------------------------------|
C|--7-----7-----7-----7-----5b----7-----7----------|
C|--7-----7-----7-----7-----------7-----7-----5--7-|
C|--7-----7-----7-----7-----------7-----7-----5--7-|
 |                                            .  . 
 |GTR II
d|-------------------------------------------------|
A|--8\----------------------8\---------------------|
F|--7\----------------------7\---------------------|
C|--5\----------------------5\---------------------|
G|--0-----------------------0----------------------|
C|-------------------------------------------------|
                                                   
  GTR I
d|-------------------------------------------------|
A|-------------------------------------------------|
F|--------------------------------------7--7--7--7-|
C|--5b----7-----------------5b----7-----7--7--7--7-|
C|--------7-----5\-3--------------7-----5--5--5--5-|
C|--------7-----------5h-7--------7----------------|
 |                    .  .                         
 |GTR II
d|-------------------------------------------------|
A|--8\----------------------8\---------------------|
F|--7\----------------------7\---------------------|
C|--5\----------------------5\---------------------|
G|--0-----------------------0----------------------|
C|-------------------------------------------------|
                                                   
Verse

  GTR II
d|-------------------------------------------------|
A|-------------------------------------------------|
F|-------------------------------------------------|
C|--7-----7-----7-----7-----5b----7-----7----------|
C|--7-----7-----7-----7-----------7-----7-----5--7-|
C|--7-----7-----7-----7-----------7-----7-----5--7-|
                                              .  . 
                                                   
  GTR II
d|-------------------------------------------------|
A|-------------------------------------------------|
F|-------------------------------------------------|
C|--5b----7-----------------5b----7-----------5b---|
C|--------7-----5\-3--------------7-----5--7-------|
C|--------7-----------5h-7--------7-----5--7-------|
                      .  .              .  .       

  GTR II
d|-------------------------------------------------|
A|-------------------------------------------------|
F|-------------------------------------------------|
C|--7-----7-----7-----7-----5b----7-----7----------|
C|--7-----7-----7-----7-----------7-----7-----5--7-|
C|--7-----7-----7-----7-----------7-----7-----5--7-|
                                              .  . 
                                                   
  GTR II
d|-------------------------------------------------|
A|-------------------------------------------------|
F|--------------------------------------7--7--7--7-|
C|--5b----7-----------------5b----7-----7--7--7--7-|
C|--------7-----5\-3--------------7-----5--5--5--5-|
C|--------7-----------5h-7--------7----------------|
                      .  .                         

  GTR II
d|-------------------------------------------------|
A|-------------------------------------------------|
F|-------------------------------------------------|
C|--7-----7-----7-----7-----5b----7-----7----------|
C|--7-----7-----7-----7-----------7-----7-----5--7-|
C|--7-----7-----7-----7-----------7-----7-----5--7-|
                                              .  . 
                                                   
  GTR II
d|-------------------------------------------------|
A|-------------------------------------------------|
F|-------------------------------------------------|
C|--5b----7-----------------5b----7-----------5b---|
C|--------7-----5\-3--------------7-----5--7-------|
C|--------7-----------5h-7--------7-----5--7-------|
                      .  .              .  .       

  GTR II
d|-------------------------------------------------|
A|-------------------------------------------------|
F|-------------------------------------------------|
C|--7-----7-----7-----7-----5b----7-----7----------|
C|--7-----7-----7-----7-----------7-----7-----5--7-|
C|--7-----7-----7-----7-----------7-----7-----5--7-|
                                              .  . 
                                                   
  GTR II
d|-------------------------------------------------|
A|-------------------------------------------------|
F|--------------------------------------7--7--7--7-|
C|--5b----7-----------------5b----7-----7--7--7--7-|
C|--------7-----5\-3--------------7-----5--5--5--5-|
C|--------7-----------5h-7--------7----------------|
                      .  .                         

Pre Chorus

  GTR I
d|-------------------------------------------------|
A|-------------------------------------------------|
F|--5-----5-----5-----5-----5-----5-----5-----5----|
C|--5-----5-----5-----5-----5-----5-----5-----5----|
G|--3-----3-----3-----3-----3-----3-----3-----3----|
C|-------------------------------------------------|
 |                                                 
 |GTR II
d|--------------------0----------------------------|
A|-------------------------------------------------|
F|--------------5----------------------------------|
C|--------5----------------------------------------|
G|--3----------------------------------------------|
C|-------------------------------------------------|
                                                   
  GTR I
d|-------------------------------------------------|
A|-------------------------------------------------|
F|--7-----7-----7-----7-----7----------------------|
C|--7-----7-----7-----7-----7-----------------5b---|
G|--5-----5-----5-----5-----5-----------5--7-------|
C|--------------------------------------5--7-------|
 |                                      .  .       
 |GTR II
d|--------------------0----------------------------|
A|-------------------------------------------------|
F|--------------7----------------------------------|
C|--------7-----------------------------------5b---|
G|--5-----------------------------------5--7-------|
C|--------------------------------------5--7-------|
                                        .  .

Verse 2

  GTR II
d|-------------------------------------------------|
A|-------------------------------------------------|
F|-------------------------------------------------|
C|--7-----7-----7-----7-----5b----7-----7----------|
C|--7-----7-----7-----7-----------7-----7-----5--7-|
C|--7-----7-----7-----7-----------7-----7-----5--7-|
                                              .  . 
                                                   
  GTR II
d|-------------------------------------------------|
A|-------------------------------------------------|
F|-------------------------------------------------|
C|--5b----7-----------------5b----7-----------5b---|
C|--------7-----5\-3--------------7-----5--7-------|
C|--------7-----------5h-7--------7-----5--7-------|
                      .  .              .  .       

  GTR II
d|-------------------------------------------------|
A|-------------------------------------------------|
F|-------------------------------------------------|
C|--7-----7-----7-----7-----5b----7-----7----------|
C|--7-----7-----7-----7-----------7-----7-----5--7-|
C|--7-----7-----7-----7-----------7-----7-----5--7-|
                                              .  . 
                                                   
  GTR II
d|-------------------------------------------------|
A|-------------------------------------------------|
F|--------------------------------------7--7--7--7-|
C|--5b----7-----------------5b----7-----7--7--7--7-|
C|--------7-----5\-3--------------7-----5--5--5--5-|
C|--------7-----------5h-7--------7----------------|
                      .  .                         

Pre Chorus 2

  GTR I
d|-------------------------------------------------|
A|-------------------------------------------------|
F|--5-----5-----5-----5-----5-----5-----5-----5----|
C|--5-----5-----5-----5-----5-----5-----5-----5----|
G|--3-----3-----3-----3-----3-----3-----3-----3----|
C|-------------------------------------------------|
 |                                                 
 |GTR II
d|--------------------0----------------------------|
A|-------------------------------------------------|
F|--------------5----------------------------------|
C|--------5----------------------------------------|
G|--3----------------------------------------------|
C|-------------------------------------------------|
                                                   
  GTR I
d|-------------------------------------------------|
A|-------------------------------------------------|
F|--7-----7-----7-----7-----7-----7-----7-----7----|
C|--7-----7-----7-----7-----7-----7-----7-----7----|
G|--5-----5-----5-----5-----5-----5-----5-----5----|
C|-------------------------------------------------|
 |                                                 
 |GTR II
d|--------------------0----------------------------|
A|-------------------------------------------------|
F|--------------7----------------------------------|
C|--------7----------------------------------------|
G|--5----------------------------------------------|
C|-------------------------------------------------|
                                            

Chorus

  GTR I
d|-------------------------------------------------|
A|-------------------------------------------------|
F|-------------------------------------------------|
C|--2-----2-----2--2--5--------5--5-----5-----5--5-|
G|--2-----2-----2--2--5--------5--5-----5-----5--5-|
C|--2-----2-----2--2--5--------5--5-----5-----5--5-|
 |                                                 
 |GTR II
d|-------------------------------------------------|
A|-------------------------------------------------|
F|-------14h16p14----------------------------------|
C|----------------17-14~---------------------------|
G|-------------------------------------------------|
C|-------------------------------------------------|
                                                   
  GTR I
d|-------------------------------------------------|
A|-------------------------------------------------|
F|-------------------------------------------------|
C|--0-----0-----0--0--7--------7--7-----7-----7--7-|
G|--0-----0-----0--0--7--------7--7-----7-----7--7-|
C|--0-----0-----0--0--7--------7--7-----7-----7--7-|

  GTR I
d|-------------------------------------------------|
A|-------------------------------------------------|
F|-------------------------------------------------|
C|--2-----2-----2--2--5--------5--5-----5-----5--5-|
G|--2-----2-----2--2--5--------5--5-----5-----5--5-|
C|--2-----2-----2--2--5--------5--5-----5-----5--5-|
 |                                                 
 |GTR II
d|-------------------------------------------------|
A|-------------------------------------------------|
F|-------14h16p14----14~---------------------------|
C|----------------17-------------------------------|
G|-------------------------------------------------|
C|-------------------------------------------------|

  GTR I
d|-------------------------------------------------|
A|-------------------------------------------------|
F|-------------------------------------------------|
C|--0-----0-----0--0--7--------7--7-----7-----7--7-|
G|--0-----0-----0--0--7--------7--7-----7-----7--7-|
C|--0-----0-----0--0--7--------7--7-----7-----7--7-|

  GTR I
d|-------------------------------------------------|
A|-------------------------------------------------|
F|-------------------------------------------------|
C|--2-----2-----2--2--5--------5--5-----5-----5--5-|
G|--2-----2-----2--2--5--------5--5-----5-----5--5-|
C|--2-----2-----2--2--5--------5--5-----5-----5--5-|
 |                                                 
 |GTR II
d|-------------------------------------------------|
A|-------------------------------------------------|
F|-------12h14p12----------------------------------|
C|----------------14-12~---------------------------|
G|-------------------------------------------------|
C|-------------------------------------------------|
                                                   
  GTR I
d|-------------------------------------------------|
A|-------------------------------------------------|
F|-------------------------------------------------|
C|--0-----0-----0--0--4--------4--4-----4-----4--4-|
G|--0-----0-----0--0--4--------4--4-----4-----4--4-|
C|--0-----0-----0--0--4--------4--4-----4-----4--4-|

Post Chorus

  GTR I
d|-------------------------------------------------|
A|-------------------------------------------------|
F|--5-----5-----5-----5-----5-----5-----5-----5----|
C|--5-----5-----5-----5-----5-----5-----5-----5----|
G|--3-----3-----3-----3-----3-----3-----3-----3----|
C|-------------------------------------------------|
 |                                                 
 |GTR II
d|-------------------------------------------------|
A|-------------------------------------------------|
F|--9--9--9--9-11-11-11-11-12-12-12-12-14-14-14-14-|
C|--x--x--x--x--x--x--x--x--x--x--x--x--x--x--x--x-|
G|--7--7--7--7--9--9--9--9-10-10-10-10-12-12-12-12-|
C|-------------------------------------------------|
                                                   
  GTR I
d|-------------------------------------------------|
A|-------------------------------------------------|
F|--7-----7-----7-----7-----7-----7-----7-----7----|
C|--7-----7-----7-----7-----7-----7-----7-----7----|
G|--5-----5-----5-----5-----5-----5-----5-----5----|
C|-------------------------------------------------|
 |                                                 
 |GTR II
d|-------------------------------------------------|
A|-------------------------------------------------|
F|--9--9--9--9-11-11-11-11-12-12-12-12-19-19-19-19-|
C|--x--x--x--x--x--x--x--x--x--x--x--x--x--x--x--x-|
G|--7--7--7--7--9--9--9--9-10-10-10-10-17-17-17-17-|
C|-------------------------------------------------|

Guitar Solo

  GTR I
d|-------------------------------------------------|
A|-------------------------------------------------|
F|-------------------------------------------------|
C|--7-----7-----7-----7-----5b----7-----7----------|
C|--7-----7-----7-----7-----------7-----7-----5--7-|
C|--7-----7-----7-----7-----------7-----7-----5--7-|
 |                                            .  . 
 |GTR II
d|-------------------------------------------------|
A|--8\----------------------8\---------------------|
F|--7\----------------------7\---------------------|
C|--5\----------------------5\---------------------|
G|--0-----------------------0----------------------|
C|-------------------------------------------------|
 |
 |GTR III
d|-------------------------------------------------|
A|--5b----------------------5b---------------------|
F|--5b----------------------5b---------------------|
C|--------7--5--7--7--5--7--------7--5--7--7--5~---|
G|-------------------------------------------------|
C|-------------------------------------------------|
                                             
  GTR I
d|-------------------------------------------------|
A|-------------------------------------------------|
F|-------------------------------------------------|
C|--5b----7-----------------5b----7----------------|
C|--------7-----5\-3--------------7-----5--7-------|
C|--------7-----------5h-7--------7-----5--7-------|
 |                    .  .              .  .       
 |GTR II
d|-------------------------------------------------|
A|--8\----------------------8\---------------------|
F|--7\----------------------7\---------------------|
C|--5\----------------------5\---------------------|
G|--0-----------------------0-----------5--7-------|
C|--------------------------------------5--7-------|
 |                                      .  .
 |GTR III                                    PH.
d|-------------------------------------------------|
A|--5b---------------------------------------------|
F|--5b---------------------------------------------|
C|--------7--5--7--7--5--7--7--5--7--5-------------|
G|--------------------------------------------5~---|
C|--------------------------------------5--7-------|
                                        .  .       

  GTR I
d|-------------------------------------------------|
A|-------------------------------------------------|
F|-------------------------------------------------|
C|--7-----7-----7-----7-----5b----7-----7----------|
C|--7-----7-----7-----7-----------7-----7-----5--7-|
C|--7-----7-----7-----7-----------7-----7-----5--7-|
 |                                            .  . 
 |GTR II
d|-------------------------------------------------|
A|--8\----------------------8\---------------------|
F|--7\----------------------7\---------------------|
C|--5\----------------------5\---------------------|
G|--0-----------------------0----------------------|
C|-------------------------------------------------|
 |                                                 
 |GTR III
d|-------------------------------------------------|
A|--5b----------------------5b---------------------|
F|--5b----------------------5b---------------------|
C|--------7--5--7~----5--7--------7--5--7--7--5~---|
G|-------------------------------------------------|
C|-------------------------------------------------|

  GTR I
d|-------------------------------------------------|
A|-------------------------------------------------|
F|--------------------------------------7--7--7--7-|
C|--5b----7-----------------5b----7-----7--7--7--7-|
C|--------7-----5\-3--------------7-----5--5--5--5-|
C|--------7-----------5h-7--------7----------------|
 |                    .  .                         
 |GTR II
d|-------------------------------------------------|
A|--8\---------------------------------------------|
F|--7\---------------------------------------------|
C|--5\---------------------------------------------|
G|--0----------------------------------------------|
C|-------------------------------------------------|
 |                                           
 |GTR III
d|-------------------------------------------------|
A|--5b---------------------------------------------|
F|--5b----------------------8-7-5-8-7-5-8-7-5---5-7|
C|--------7--5--7--7--5--7--------------------7----|
G|-------------------------------------------------|
C|-------------------------------------------------|


Pre Chorus 3

  GTR I
d|-------------------------------------------------|
A|-------------------------------------------------|
F|--5-----5-----5-----5-----5-----5-----5-----5----|
C|--5-----5-----5-----5-----5-----5-----5-----5----|
G|--3-----3-----3-----3-----3-----3-----3-----3----|
C|-------------------------------------------------|
 |                                                 
 |GTR II
d|--------------------0----------------------------|
A|-------------------------------------------------|
F|--------------5----------------------------------|
C|--------5----------------------------------------|
G|--3----------------------------------------------|
C|-------------------------------------------------|
 |                                                 
 |GTR III
d|-------------------------------------------------|
A|-------------------------------------------------|
F|-------------------------------------------------|
C|--5~---------------------------------------------|
G|-------------------------------------------------|
C|-------------------------------------------------|

  GTR I
d|-------------------------------------------------|
A|-------------------------------------------------|
F|--7-----7-----7-----7-----7----------------------|
C|--7-----7-----7-----7-----7----------------------|
G|--5-----5-----5-----5-----5----------------------|
C|-------------------------------------------------|
 |                                                 
 |GTR II
d|--------------------0----------------------------|
A|-------------------------------------------------|
F|--------------7----------------------------------|
C|--------7----------------------------------------|
G|--5----------------------------------------------|
C|-------------------------------------------------|
                                              
Chorus

  GTR I
d|-------------------------------------------------|
A|-------------------------------------------------|
F|-------------------------------------------------|
C|--2-----2-----2--2--5--------5--5-----5-----5--5-|
G|--2-----2-----2--2--5--------5--5-----5-----5--5-|
C|--2-----2-----2--2--5--------5--5-----5-----5--5-|
 |                                                 
 |GTR II
d|-------------------------------------------------|
A|-------------------------------------------------|
F|-------14h16p14----------------------------------|
C|----------------17-14~---------------------------|
G|-------------------------------------------------|
C|-------------------------------------------------|
                                                   
  GTR I
d|-------------------------------------------------|
A|-------------------------------------------------|
F|-------------------------------------------------|
C|--0-----0-----0--0--7--------7--7-----7-----7--7-|
G|--0-----0-----0--0--7--------7--7-----7-----7--7-|
C|--0-----0-----0--0--7--------7--7-----7-----7--7-|

  GTR I
d|-------------------------------------------------|
A|-------------------------------------------------|
F|-------------------------------------------------|
C|--2-----2-----2--2--5--------5--5-----5-----5--5-|
G|--2-----2-----2--2--5--------5--5-----5-----5--5-|
C|--2-----2-----2--2--5--------5--5-----5-----5--5-|
 |                                                 
 |GTR II
d|-------------------------------------------------|
A|-------------------------------------------------|
F|-------14h16p14----14~---------------------------|
C|----------------17-------------------------------|
G|-------------------------------------------------|
C|-------------------------------------------------|

  GTR I
d|-------------------------------------------------|
A|-------------------------------------------------|
F|-------------------------------------------------|
C|--0-----0-----0--0--7--------7--7-----7-----7--7-|
G|--0-----0-----0--0--7--------7--7-----7-----7--7-|
C|--0-----0-----0--0--7--------7--7-----7-----7--7-|

  GTR I
d|-------------------------------------------------|
A|-------------------------------------------------|
F|-------------------------------------------------|
C|--2-----2-----2--2--5--------5--5-----5-----5--5-|
G|--2-----2-----2--2--5--------5--5-----5-----5--5-|
C|--2-----2-----2--2--5--------5--5-----5-----5--5-|
 |                                                 
 |GTR II
d|-------------------------------------------------|
A|-------------------------------------------------|
F|-------12h14p12----------------------------------|
C|----------------14-12~---------------------------|
G|-------------------------------------------------|
C|-------------------------------------------------|
                                                   
  GTR I
d|-------------------------------------------------|
A|-------------------------------------------------|
F|-------------------------------------------------|
C|--0-----0-----0--0--4--------4--4-----4-----4--4-|
G|--0-----0-----0--0--4--------4--4-----4-----4--4-|
C|--0-----0-----0--0--4--------4--4-----4-----4--4-|

Post Chorus

  GTR I
d|-------------------------------------------------|
A|-------------------------------------------------|
F|--5-----5-----5-----5-----5-----5-----5-----5----|
C|--5-----5-----5-----5-----5-----5-----5-----5----|
G|--3-----3-----3-----3-----3-----3-----3-----3----|
C|-------------------------------------------------|
 |                                                 
 |GTR II
d|-------------------------------------------------|
A|-------------------------------------------------|
F|--9--9--9--9-11-11-11-11-12-12-12-12-14-14-14-14-|
C|--x--x--x--x--x--x--x--x--x--x--x--x--x--x--x--x-|
G|--7--7--7--7--9--9--9--9-10-10-10-10-12-12-12-12-|
C|-------------------------------------------------|
                                                   
  GTR I
d|-------------------------------------------------|
A|-------------------------------------------------|
F|--7-----7-----7-----7-----7-----7-----7-----7----|
C|--7-----7-----7-----7-----7-----7-----7-----7----|
G|--5-----5-----5-----5-----5-----5-----5-----5----|
C|-------------------------------------------------|
 |                                                 
 |GTR II
d|-------------------------------------------------|
A|-------------------------------------------------|
F|--9--9--9--9-11-11-11-11-12-12-12-12-19-19-19-19-|
C|--x--x--x--x--x--x--x--x--x--x--x--x--x--x--x--x-|
G|--7--7--7--7--9--9--9--9-10-10-10-10-17-17-17-17-|
C|-------------------------------------------------|

  GTR I
d|-------------------------------------------------|
A|-------------------------------------------------|
F|--5-----5-----5-----5-----5-----5-----5-----5----|
C|--5-----5-----5-----5-----5-----5-----5-----5----|
G|--3-----3-----3-----3-----3-----3-----3-----3----|
C|-------------------------------------------------|
 |                                                 
 |GTR II
d|-------------------------------------------------|
A|-------------------------------------------------|
F|--9--9--9--9-11-11-11-11-12-12-12-12-14-14-14-14-|
C|--x--x--x--x--x--x--x--x--x--x--x--x--x--x--x--x-|
G|--7--7--7--7--9--9--9--9-10-10-10-10-12-12-12-12-|
C|-------------------------------------------------|
                                                   
  GTR I
d|-------------------------------------------------|
A|-------------------------------------------------|
F|--7-----7-----7-----7-----7-----7-----7-----7----|
C|--7-----7-----7-----7-----7-----7-----7-----7----|
G|--5-----5-----5-----5-----5-----5-----5-----5----|
C|-------------------------------------------------|
 |                                                 
 |GTR II
d|-------------------------------------------------|
A|-------------------------------------------------|
F|--9--9--9--9-11-11-11-11-12-12-12-12-19-19-19-19-|
C|--x--x--x--x--x--x--x--x--x--x--x--x--x--x--x--x-|
G|--7--7--7--7--9--9--9--9-10-10-10-10-17-17-17-17-|
C|-------------------------------------------------|

Outro

  GTR I
d|-------------------------------------------------|
A|-------------------------------------------------|
F|-------------------------------------------------|
C|--7-----7-----7-----7-----5b----7-----7----------|
C|--7-----7-----7-----7-----------7-----7-----5--7-|
C|--7-----7-----7-----7-----------7-----7-----5--7-|
 |                                            .  . 
 |GTR II
d|-------------------------------------------------|
A|--8\----------------------8\---------------------|
F|--7\----------------------7\---------------------|
C|--5\----------------------5\---------------------|
G|--0-----------------------0----------------------|
C|-------------------------------------------------|
 |
 |GTR III
d|-------------------------------------------------|
A|--5b----------------------5b---------------------|
F|--5b----------------------5b---------------------|
C|--------7--5--7--7--5--7--------7--5--7--7--5~---|
G|-------------------------------------------------|
C|-------------------------------------------------|
                                             
  GTR I
d|-------------------------------------------------|
A|-------------------------------------------------|
F|-------------------------------------------------|
C|--5b----7-----------------5b----7----------------|
C|--------7-----5\-3--------------7-----5--7-------|
C|--------7-----------5h-7--------7-----5--7-------|
 |                    .  .              .  .       
 |GTR II
d|-------------------------------------------------|
A|--8\----------------------8\---------------------|
F|--7\----------------------7\---------------------|
C|--5\----------------------5\---------------------|
G|--0-----------------------0-----------5--7-------|
C|--------------------------------------5--7-------|
 |                                      .  .
 |GTR III                                    PH.
d|-------------------------------------------------|
A|--5b---------------------------------------------|
F|--5b---------------------------------------------|
C|--------7--5--7--7--5--7--7--5--7--5-------------|
G|--------------------------------------------5~---|
C|--------------------------------------5--7-------|
                                        .  .       

  GTR I
d|-------------------------------------------------|
A|-------------------------------------------------|
F|-------------------------------------------------|
C|--7-----7-----7-----7-----5b----7-----7----------|
C|--7-----7-----7-----7-----------7-----7-----5--7-|
C|--7-----7-----7-----7-----------7-----7-----5--7-|
 |                                            .  . 
 |GTR II
d|-------------------------------------------------|
A|--8\----------------------8\---------------------|
F|--7\----------------------7\---------------------|
C|--5\----------------------5\---------------------|
G|--0-----------------------0----------------------|
C|-------------------------------------------------|
 |                                                 
 |GTR III
d|-------------------------------------------------|
A|--5b----------------------5b---------------------|
F|--5b----------------------5b---------------------|
C|--------7--5--7~----5--7--------7--5--7--7--5~---|
G|-------------------------------------------------|
C|-------------------------------------------------|

  GTR I
d|-------------------------------------------------|
A|-------------------------------------------------|
F|--------------------------------------7--7--7--7-|
C|--5b----7-----------------5b----7-----7--7--7--7-|
C|--------7-----5\-3--------------7-----5--5--5--5-|
C|--------7-----------5h-7--------7----------------|
 |                    .  .                         
 |GTR II
d|-------------------------------------------------|
A|--8\----------------------8\---------------------|
F|--7\----------------------7\----------7--7--7--7-|
C|--5\----------------------5\----------7--7--7--7-|
G|--0-----------------------0-----------5--5--5--5-|
C|-------------------------------------------------|
 |                                           
 |GTR III
d|-------------------------------------------------|
A|--5b---------------------------------------------|
F|--5b----------------------------------7--7--7--7-|
C|--------7--5--7--7--5--7--7--5--7--5--7--7--7--7-|
G|--------------------------------------5--5--5--5-|
C|-------------------------------------------------|


| b  bend
| r  release bend
|trp triplet
|PH. pinch harmonic
|fbk feedback
| .  palm-mute
| /  slide up
| \  slide down
| h  hammer-on
| p  pull-off
| ~  vibrato
| +  harmonic
| x  Mute note
===============================================================================

            
            
Suggest correction
Creating personal tab
Creating personal tab
You can edit any tab online and save it as your Personal.

You can edit, replace or remove any tab part or add personal notes – all changes will be seen only by you.

Personal tabs can be accessed anytime from any device, even offline.
Learn more »
Give kudos to tab author, rate the tab!
1 2 3 4 5
comments
print report bad tab
guest
You may want to rate the tab now too:
select rating
Wanna post a correction for this tab? Suggest correction