Oops, an error
Loading. Please wait.

Say Goodbye tab

version 3
version 3

Whole song

Interactive

20,355 views 33 this week
3 commentsread comments
1 2 3 4 5
x 8
add to favorites
×
Save as Personal and add changes to this tab that will be seen only by you. Learn more ›
×
You can save this tab as Personal to edit and correct it or add notes. All changes will be seen only by you. Learn more »
launch autoscroll
font size
0
reset
how to read this tab
guitar tuner
edit
Autoscroll
slow
fast
+/-
esc
set tempo
stop
D|----------------------------------------------------------------|
A|--------3----------------3--------------------------------------|
F|-----0-----2---2-----0-----2---2---------7---------------7------|
C|-------0-----0---------0-----0-------5-----5---5-----5-----5----|
G|---0---------------0---------------5---5-----5-----5---5--------|
C|-0---------------3---------------5---------------5-----------5--|
  (Thumb on 3rd fret, 6th string)
                                                She said don't
D|---------------------------------------------------------------|
A|--------3----------------3-------------------------------------|
F|-----0-----2---2-----0-----2---2--7----------------------------|
C|-------0-----0---------0-----0----5----------------------------|
G|---0---------------0--------------5----------------------------|
C|-0---------------3----------------5----------------------------|

  leave this up to me to say    that i don't love you anyway, i'll just
D|---------------------------------------------------------------|
A|--------3----------------3-------------------------------------|
F|-----0-----2---2-----0-----2---2---------7---------------7-----|
C|-------0-----0---------0-----0-------5-----5---5-----5-----5---|
G|---0---------------0---------------5---5-----5-----5---5-------|
C|-0---------------3---------------5---------------5-------------|

   leave it up to you to say goodbye..................cause
D|---------------------------------------------------------------|
A|--------3----------------3-------------------------------------|
F|-----0-----2---2-----0-----2---2---------7---------------7-----|
C|-------0-----0---------0-----0-------5-----5---5-----5-----5---|
G|---0---------------0---------------5---5-----5-----5---5-------|
C|-0---------------3---------------5---------------5-------------|

 these good times will never last keep a hand on the wheel an a foot on gas
D|------------------------------------------------------------------------|
A|---------3----------------3---------------------------------------------|
F|-----3-----3---3------3------3---3------------7---------------7---------|
C|---3---3-----3------3---3------3----------5-----5---5-----5-----5---5---|
G|-1----------------1---------------------5---5-----5-----5---5-----5-----|
C|--------------------------------------5---------------5-----------------|

  we thought it would last forever i wish you'd just remember......
D|-----------------------------------------------------------------------|
A|---------3----------------3--------------------------------------------|
F|-----3-----3---3------3------3---3----7--------------------------------|
C|---3---3-----3------3---3------3------5--------------------------------|
G|-1----------------1-------------------5--------------------------------|
C|--------------------------------------5--------------------------------|
                            (she said)                             (i said)
No will anything change your mind    a 1 way ticket was a pretty good sign

D|--------------------------------------------------------------------|
A|--------------------------------------------------------------------|
F|---------------5--5--5--5-5-----------------------------------------|
C|-0--0--0--0-0--5--5--5--5-5-5--5--5--5-5--5--5--5/3-----------------|
G|-0--0--0--0-0--3--3--3--3-3-5--5--5--5-5--5--5--5/3-----------------|
C|-0--0--0--0-0---------------5--5--5--5-5--5--5--5/3-----------------|

                      (she said)
 How can you leave it all     very much to leave behind
D|--------------------------------------------------------------------|
A|--------------------------------------------------------------------|
F|---------------5--5--5--5-5-----------------------------------------|
C|-0--0--0--0-0--5--5--5--5-5-5--5--5--5-5--5--5--5/3-----------------|
G|-0--0--0--0-0--3--3--3--3-3-5--5--5--5-5--5--5--5/3-----------------|
C|-0--0--0--0-0---------------5--5--5--5-5--5--5--5/3-----------------|

                 (so say goodbye)                 (so say goodbye)
 You say goodbye                      say goodbye
D|--------------------------------------------------------------------|
A|--------------------------------------------------------------------|
F|---------------5--5--5--5-5--4--4--4--4-4--3--3---------------------|
C|-0--0--0--0-0--5--5--5--5-5--4--4--4--4-4--3--3--3--3---------------|
G|-0--0--0--0-0--3--3--3--3-3--2--2--2--2-2--1--1--3--3---------------|
C|-0--0--0--0-0------------------------------------3--3---------------|

                 (so say goodbye)
 You say goodbye                      say goodbye
D|--------------------------------------------------------------------|
A|--------------------------------------------------------------------|
F|---------------5--5--5--5-5-----------------------------------------|
C|-0--0--0--0-0--5--5--5--5-5--5--5--5--5-5--3--3--2--2---------------|
G|-0--0--0--0-0--3--3--3--3-3--5--5--5--5-5--3--3--2--2---------------|
C|-0--0--0--0-0----------------5--5--5--5-5--3--3--2--2---------------|

  Next time i'll take it slow  and as for you  i'll never know
D|---------------------------------------------------------------|
A|--------3----------------3-------------------------------------|
F|-----0-----2---2-----0-----2---2---------7---------------7-----|
C|-------0-----0---------0-----0-------5-----5---5-----5-----5---|
G|---0---------------0---------------5---5-----5-----5---5-------|
C|-0---------------3---------------5---------------5-------------|

 At least next time i'll try to understand   oh  so please don't
D|---------------------------------------------------------------|
A|--------3----------------3-------------------------------------|
F|-----0-----2---2-----0-----2---2---------7---------------7-----|
C|-------0-----0---------0-----0-------5-----5---5-----5-----5---|
G|---0---------------0---------------5---5-----5-----5---5-------|
C|-0---------------3---------------5---------------5-------------|

 Leave this up to me to say  that you didn't love me anyway  i'll just
D|---------------------------------------------------------------|
A|--------3----------------3-------------------------------------|
F|-----0-----2---2-----0-----2---2---------7---------------7-----|
C|-------0-----0---------0-----0-------5-----5---5-----5-----5---|
G|---0---------------0---------------5---5-----5-----5---5-------|
C|-0---------------3---------------5---------------5-------------|

  leave this up to you to say goodbye                   cause
D|---------------------------------------------------------------|
A|--------3----------------3-------------------------------------|
F|-----0-----2---2-----0-----2---2---------7---------------7-----|
C|-------0-----0---------0-----0-------5-----5---5-----5-----5---|
G|---0---------------0---------------5---5-----5-----5---5-------|
C|-0---------------3---------------5---------------5-------------|

 these good times will never last keep a hand on the wheel an a foot on gas
D|------------------------------------------------------------------------|
A|---------3----------------3---------------------------------------------|
F|-----3-----3---3------3------3---3------------7---------------7---------|
C|---3---3-----3------3---3------3----------5-----5---5-----5-----5---5---|
G|-1----------------1---------------------5---5-----5-----5---5-----5-----|
C|--------------------------------------5---------------5-----------------|

  we thought it would last forever i wish you'd just remember......
D|-----------------------------------------------------------------------|
A|---------3----------------3--------------------------------------------|
F|-----3-----3---3------3------3---3----7--------------------------------|
C|---3---3-----3------3---3------3------5----------------------0/5/3-----|
G|-1----------------1-------------------5----------------------0/5/3-----|
C|--------------------------------------5----------------------0/5/3-----|
                                (she said)                        (i said)
No will anything change your mind    a 1 way ticket was a pretty good sign
D|--------------------------------------------------------------------|
A|--------------------------------------------------------------------|
F|---------------5--5--5--5-5-----------------------------------------|
C|-0--0--0--0-0--5--5--5--5-5-5--5--5--5-5--5--5--5/3-----------------|
G|-0--0--0--0-0--3--3--3--3-3-5--5--5--5-5--5--5--5/3-----------------|
C|-0--0--0--0-0---------------5--5--5--5-5--5--5--5/3-----------------|

                         (she said)
  How can you leave it all     very much to leave behind
D|--------------------------------------------------------------------|
A|--------------------------------------------------------------------|
F|---------------5--5--5--5-5-----------------------------------------|
C|-0--0--0--0-0--5--5--5--5-5-5--5--5--5-5--5--5--5/3-----------------|
G|-0--0--0--0-0--3--3--3--3-3-5--5--5--5-5--5--5--5/3-----------------|
C|-0--0--0--0-0---------------5--5--5--5-5--5--5--5/3-----------------|
                 (so say goodbye)                 (so say goodbye)
 You say goodbye                      say goodbye
D|--------------------------------------------------------------------|
A|--------------------------------------------------------------------|
F|---------------5--5--5--5-5--4--4--4--4-4--3--3---------------------|
C|-0--0--0--0-0--5--5--5--5-5--4--4--4--4-4--3--3--3--3---------------|
G|-0--0--0--0-0--3--3--3--3-3--2--2--2--2-2--1--1--3--3---------------|
C|-0--0--0--0-0------------------------------------3--3---------------|

                 (so say goodbye)
 You say goodbye                      say goodbye
D|--------------------------------------------------------------------|
A|--------------------------------------------------------------------|
F|---------------5--5--5--5-5-----------------------------------------|
C|-0--0--0--0-0--5--5--5--5-5--5--5--5--5-5--3--3--2--2---------------|
G|-0--0--0--0-0--3--3--3--3-3--5--5--5--5-5--3--3--2--2---------------|
C|-0--0--0--0-0----------------5--5--5--5-5--3--3--2--2---------------|

             You say goodbye        you say goodbye
D|-------------------------------------------------------|
A|-------------------------------------------------------|
F|----------------------------------------5-5-5-5--------|
C|-0----0--0--3-3--5--5--0----0--0--3-3-3-5-5-5-5--------|
G|-0----0--0--3-3--5--5--0----0--0--3-3-3-3-3-3-3--------|
C|-0----0--0--3-3--5--5--0----0--0--3-3-3----------------|

               You say goodbye           well......
D|-------------------------------------------------------|
A|-------------------------------------------------------|
F|----------------------------------------5-5-5-5--------|
C|-0----0--0--3-3--5--5--0----0--0--3-3-3-5-5-5-5--------|
G|-0----0--0--3-3--5--5--0----0--0--3-3-3-3-3-3-3--------|
C|-0----0--0--3-3--5--5--0----0--0--3-3-3----------------|

 These good times will never last keep a hand on the wheel and a
D|--------------------------------------------------------------|
A|--------------------------------------------------------------|
F|-3---------------------3--------------------------------------|
C|-3---------------------3------------------5-------------------|
G|-1---------------------1------------------5-------------------|
C|------------------------------------------5-------------------|

 foot on the gas    we thought it would last forever in
D|----------------------------------------------------|
A|----------------------------------------------------|
F|-----------------3---------------------3------------|
C|-5---------------3---------------------3------------|
G|-5---------------1---------------------1------------|
C|-5--------------------------------------------------|

 case you can't remember
D|-------------------------------|
A|-------------------------------|
F|-------------------------------|
C|-5--5--7--7--8--8--10--10------|
G|-5--5--7--7--8--8--10--10------|
C|-5--5--7--7--8--8--10--10------|

                                (she said)
No will anything change your mind         a 1 way ticket was a pretty
D|--------------------------------------------------------------------|
A|--------------------------------------------------------------------|
F|--------------------------------------------------------------------|
C|--------------------------------------------------------------------|
G|--------------------------------------------------------------------|
C|--------------------------------------------------------------------|

         (and i said)
good sign            no  and she said no  and i said no  and  she said no
D|-------------------------------------------------------------------------|
A|--------------------(33333333333333333333333333333333)-------------------|
F|--------------------(22222222222222222222222222222222)-------------------|
C|------------------Turn volume nob up gently after striking once----------|
G|-------------------------------------------------------------------------|
C|------------------------------------------------------------------0/5/3--|
while switching the pick-up selector back and forth.

                 (so say goodbye)                 (so say goodbye)
  You say goodbye                      say goodbye
D|--------------------------------------------------------------------|
A|--------------------------------------------------------------------|
F|---------------5--5--5--5-5--4--4--4--4-4--3--3---------------------|
C|-0--0--0--0-0--5--5--5--5-5--4--4--4--4-4--3--3--3--3---------------|
G|-0--0--0--0-0--3--3--3--3-3--2--2--2--2-2--1--1--3--3---------------|
C|-0--0--0--0-0------------------------------------3--3---------------|
                 (so say goodbye)

 You say goodbye                      say goodbye
D|--------------------------------------------------------------------|
A|--------------------------------------------------------------------|
F|---------------5--5--5--5-5-----------------------------------------|
C|-0--0--0--0-0--5--5--5--5-5--5--5--5--5-5--3--3--2--2---------------|
G|-0--0--0--0-0--3--3--3--3-3--5--5--5--5-5--3--3--2--2---------------|
C|-0--0--0--0-0----------------5--5--5--5-5--3--3--2--2---------------|

D|-------------------------------------------------------|
A|-------------------------------------------------------|
F|----------------------------------------5-5-5-5--------|
C|-0----0--0--3-3--5--5--0----0--0--3-3-3-5-5-5-5--------|
G|-0----0--0--3-3--5--5--0----0--0--3-3-3-3-3-3-3--------|
C|-0----0--0--3-3--5--5--0----0--0--3-3-3----------------|


************************************

| /    Slide up
| (n)  Ghost note

************************************

            
            
Suggest correction
Creating personal tab
Creating personal tab
You can edit any tab online and save it as your Personal.

You can edit, replace or remove any tab part or add personal notes – all changes will be seen only by you.

Personal tabs can be accessed anytime from any device, even offline.
Learn more »
comments
print report bad tab
3 comments total.
+1 reply
Pete Griffin 258 May 02, 2007 10:24 AM

Nice tab, reminded me of what a great song this is :D. I have some alterations which may want to cast your eye over to see what you think. Firstly i've got the intro going something like this:

D|---------------------------------|
A|---------3-----3---------3-----3-|
F|-----2-----2---------2-----2-----|
C|---0---0-----0-----0---0----0----|
G|---------------------------------|
C|-0---------------3---------------|

D|-----------------------------------|
A|-----------------------------------|
F|--------7---------------7----------|
C|-----7----7--7------7-----7--------|
G|---5---5---5------5---5----------0-|
C|-5--------------5------------0h5---|

And also the bridge part at 2.04, i've just added in the high pitch octave like this:

D|---------10--------------|
A|---------x---------------|
F|---------7---------------|
C|--0--0------0-0---3--5---|
G|--0--0------0-0---3--5---|
C|--0--0------0-0---3--5---|

D|-------10-----------------|
A|-------x------------------|
F|-------7----------5-5-5-5-|
C|-0-0-----0-0---3--5-5-5-5-|
G|-0-0-----0-0---3--3-3-3-3-|
C|-0-0-----0-0---3----------|

Anyway thanx again :)

0 reply
XxShredderxX 114 May 02, 2007 10:00 PM

i like his way too, but yours is good too dude. you made it simple to read and play. thanks

+1 reply
clemm 122 Sep 18, 2013 09:41 PM

I agree with Pete on this part:

D|---------------------------------|
A|---------3-----3---------3-----3-|
F|-----2-----2---------2-----2-----|
C|---0---0-----0-----0---0----0----|
G|---------------------------------|
C|-0---------------3---------------|

But on the next part I'd like to say that it actually is played like this:

D|-----------------------------------|
A|--------3-----3---------3----------|
F|-----2----2-----2---0-----2----2---|
C|---0---0----0-----0---0-----0------|
G|-----------------------------------|
C|-5--------------5-----------3----0-|

I slowed the song down to 25% normal speed and listened over and over to this part. I'm pretty sure it is accurate.

guest
You may want to rate the tab now too:
select rating
Wanna post a correction for this tab? Suggest correction