Oops, an error
Loading. Please wait.

Wait For Me tab

51,443 views 6 this week
7 commentsread comments
1 2 3 4 5
x 12
add to favorites
×
Save as Personal and add changes to this tab that will be seen only by you. Learn more ›
×
You can save this tab as Personal to edit and correct it or add notes. All changes will be seen only by you. Learn more »
launch autoscroll
font size
0
reset
how to read this tab
guitar tuner
edit
Autoscroll
slow
fast
+/-
esc
set tempo
stop
Tuning - one half step down
The strum pattern is really easy, so you guys can figure it out...any corrections or 
GUITAR TABS email me jmhr116@yahoo.com...thanks


Intro
----2-----0-----2-----0------------------|
----3-----3-----3-----3------------------|
----2-----2-----2-----2------------------|
----0-----0-----0-----0------------------|
----0-----0-----0-----0------------------|
-----------------------------------------|


Verse
----2-----0-----3-----0------------------|
----3-----3-----3-----3------------------|
----2-----2-----0-----2------------------|
----0-----0-----0-----0------------------|
----0-----0-----2-----4------------------|
----------------3------------------------|


Pre-Chorus
----3-----------3------------------------|
----3-----2-----3-----2------------------|
----0-----2-----0-----2------------------|
----0-----2-----0-----2------------------|
----2-----0-----2-----0------------------|
----3-----------3------------------------|


Chorus
----2-----0-----3-----0------------------|
----3-----3-----3-----3------------------|
----2-----2-----0-----2------------------|
----0-----0-----0-----0------------------|
----0-----0-----2-----4------------------|
----------------3------------------------|


Bridge
----3----------3-------------------------|
----3----------3-------------------------|
----0----------0-------------------------|
----0----------0-------------------------|
----2----------2-------------------------|
----3----------3-------------------------|


Lyrics

You are not alone tonight
Imagine me there by your side
It's so hard to be here so far away from you
I'm counting the days till
I'm finally done
I'm counting them down, yeah, one by one
It feels like forever till I return to you
But it helps me on those lonely nights
It's that one thing that keeps me alive

[Chorus:]
Knowing that you wait for me
Ever so patiently

No one else knows the feeling inside
We hang up the phone without saying goodnight
Because it's the sound of your voice that brings me home
It's never been easy to say
But it's easier when I've gone away

(Chorus)

What I'd give
What I'd do
Knowing I'm not there for you
Makes it so hard to leave
What I'd give
What I'd do
Anything to get me home to you
And this time I'll stay

And you wait for me
Ever so patiently
Yeah, you're everything I've ever dreamed of having and
It's everything I need from you just knowing that you wait for me

            
            
Suggest correction
Creating personal tab
Creating personal tab
You can edit any tab online and save it as your Personal.

You can edit, replace or remove any tab part or add personal notes – all changes will be seen only by you.

Personal tabs can be accessed anytime from any device, even offline.
Learn more »
comments
print report bad tab
7 comments total. Showing first comments.
+1 reply
PaithOfDead 10 May 07, 2008 06:31 PM

good tab bro but tuning is 1/2 step down not a full step but fingering sounds dead on good job this had me stumpt for a bit

0 reply
jman_1204 10 Nov 29, 2008 05:05 PM

hey, great tab! i think E---------------------
the solo at the end is B---------------------
this but e-mail me if G--6h8--10-8-10-8--6h8
its not right. D---------------------
jman_1204@yahoo.com A---------------------
D---------------------
again, awesome tab
thanks, Printz

+1 reply
ryan_campbell91 16 Feb 02, 2010 11:22 AM

i dont know if im right but everytime it says play a G i think it sounds more like it if you play it like

--2----
--3----
--0----
--0----
--2----
-------

guest
You may want to rate the tab now too:
select rating
Wanna post a correction for this tab? Suggest correction