Oops, an error
Loading. Please wait.

A Little Faster Bass Tab

version 1
version 1

Whole song

Interactive

4,593 views 3 this week
1 commentread comment
1 2 3 4 5
please rate
add to favorites
launch autoscroll
font size
0
reset
guitar tuner
Tab Pro tools
  • play this tab
  • loop segment
  • change instrument
  • show fretboard
  • metronome
×
Best way to learn
"A Little Faster"
Autoscroll
slow
fast
+/-
esc
set tempo
stop
Contributor
Difficulty
Tuning
intermediate
D A D G B E
Tuning (this tab): Drop D	 Tab difficulty: intermediate	

Tabbed by : Sean \m/ :P

First tab EVER!!!!!! To all you there for tomorrow fans who play bass finally i 
figured out the tabs for the bass in a little faster!!!
So john you should practice this song cuz i worked my ass over this :))

Drop D tuning 
 Intro
  G|---------------------------------------------|
  D|---------------------------------------------|
  A|---------------------------------------------|     X2 repeat 
  D|-----44--7777-0000-99-00000000---------------|

Verse
  G|-----------------------------------------------------------|
  D|-----------------------------------------------------------|
  A|-----------------------------------------------------------|     
  D|---------4h7--7p0------4-X16---7-X8--0-X24-----------------|

  G|----------------------------------------------------------------|
  D|----------------------------------------------------------------|
  A|----------------------------------------------------------------|     
  D|-----2-X16--0-X16--2-X16-0-X2-----------------------------------|

Chorus

  G|------------------------------------------------------------|
  D|------------------------------------------------------------|
  A|------------------------------------------------------------|   X2 Repeat  
  D|-----44--7777-0000-99-2222----------------------------------|

  G|-----------------------------------------------------|
  D|-----------------------------------------------------|
  A|-----------------------------------------------------|     
  D|---44444444-77777777-9999999999999999----------------|

  G|-----------------------------------------------------------|
  D|-----------------------------------------------------------|
  A|-----------------------------------------------------------|     
  D|-----44-7777-0000-99-0-2-4---------------------------------|

Verse 2

  G|------------------------------------------------------------------------|
  D|------------------------------------------------------------------------|
  A|------------------------------------------------------------------------|     
  D|---7--6--4--7--6---4444444444444444-77777777-000000000000000000000000---| 

 
 G|-----------------------------------------------|
 D|-----------------------------------------------|
 A|-----------------------------------------------|
 D|--2222222222222222-0000000000000000-22222222-2-|  

Chorus

  G|------------------------------------------------------------|
  D|------------------------------------------------------------|
  A|------------------------------------------------------------|   X2 Repeat  
  D|-----44--7777-0000-99-2222----------------------------------|

  G|-----------------------------------------------------|
  D|-----------------------------------------------------|
  A|-----------------------------------------------------|     
  D|---44444444-77777777-9999999999999999----------------|

  G|----------------------------------------------------------|
  D|----------------------------------------------------------|
  A|----------------------------------------------------------|     
  D|-----44-7777-0000-99-0-2----------------------------------|


  G|-----------------------------------------|
  D|-----------------------------------------|
  A|-----------------------------------------|
  D|--444-777-99999999999999999-22222222-4---|

    Dint figure out the bridge yet but i'll update this part if i find out 
 
   Then....

 G|-----------------------------------------|
 D|-----------------------------------------|
 A|-----------------------------------------|
 D|---4------------------------44444444-----|
 
Chorus

  G|------------------------------------------------------------|
  D|------------------------------------------------------------|
  A|------------------------------------------------------------|   X2 Repeat  
  D|-----44--7777-0000-99-2222----------------------------------|

  G|-----------------------------------------------------|
  D|-----------------------------------------------------|
  A|-----------------------------------------------------|     
  D|---44444444-77777777-9999999999999999----------------|

  G|--------------------------------------------------------------|
  D|--------------------------------------------------------------|
  A|--------------------------------------------------------------|     
  D|-----44-7777-0000-99-00000000---------------------------------|

  Outro

  G|---------------------------------------|
  D|---------------------------------------|
  A|---------------------------------------|
  D|--44444444-77777777-99999999-00000000--|

  G|-----------------------------|
  D|-----------------------------|
  A|-----------------------------|
  D|--44444444-77777777-99999999-|

  G|----------|
  D|----------|
  A|----------|
  D|--0-2-4/--|




| /  slide up
| \  slide down
| h  hammer-on
| p  pull-off
| ~  vibrato
| +  harmonic
| x  Mute note
comments
We did not receive enough feedback on this tab! Please rate:
print report bad tab
1 2 3 4 5
1 comment total.
0 reply
ringoffire wrote on January 18 2010, 01:44 am

It's in drop c# actually.

I want to post or [tab]
guest
You may want to rate the tab now too:
select rating
Please do not post tabs as comments. Select "correction" instead!