Oops, an error
Loading. Please wait.

A Little Faster Tab

version 2
version 2

Whole song

Interactive

11,414 views 9 this week
4 commentsread comments
1 2 3 4 5
excellent!
x 8
add to favorites
launch autoscroll
font size
0
reset
how to read this tab
guitar tuner
Tab Pro tools
  • play this tab
  • loop segment
  • change instrument
  • show fretboard
  • metronome
×
Best way to learn
"A Little Faster"
Autoscroll
slow
fast
+/-
esc
set tempo
stop
Contributor
Difficulty
Tuning
novice
C# G# C# F# A# D#
hey heres my version of a little faster

this is a cool song and a pretty easy one to play any probs let us
kno my profile is http://profile.ultimate-guitar.com/farmerjon1988/

here goes

tuning is Drop Db (Db,Ab,Db,Gb,Bb,Eb)


intro
|--9-------9/12----------|--9-------9--|
|-------10--------12-10--|-------10----|
|----11---------9--------|----11-------|
|------------------------|-------------|
|------------------------|-------------|
|------------------------|-------------|
      play 4 times            once

|----------------------------------------|
|-------xxxx--------------xxxx-----------|
|-------xxxx--------------xxxx-----------|
|--4444-xxxx-777700009999-xxxx-00000000--|
|--4444-xxxx-777700009999-xxxx-00000000--|
|--4444------777700009999------00000000--|
play twice

over second time
|--9-------9/12----------|--9-------9-------------|
|-------10--------12-10--|-------10---12-10-9-----|
|----11---------9--------|----11--------------11--|
|------------------------|------------------------|
|------------------------|------------------------|
|------------------------|------------------------|
      play 4 times                   once

verse
                                 harmonics
|------------------------------------7-------------------------------------|
|------------------------------------7-------------------------------------|
|------------------------------------7-------------------------------------|
|-----------------------------------------------------------------------2--|
|--4444444444444444-77777777-0000000---4444444444444444-77777777-00000002--|
|--4444444444444444-77777777-0000000---4444444444444444-77777777-00000002--|

|----------------------------------------------------------------|
|----------------------------------------------------------------|
|----------------------------------------------------------------|
|-------------------------------------------------------------2--|
|--0000000000000000-2222222222222222-0000000000000000-222222222--|
|--0000000000000000-2222222222222222-0000000000000000-222222222--|

chorus
play twice
|----------------------------------------|
|-------xxxx--------------xxxx-----------|
|-------xxxx--------------xxxx-----------|
|--4444-xxxx-777700009999-xxxx-00000000--|
|--4444-xxxx-777700009999-xxxx-00000000--|
|--4444------777700009999------00000000--|

|-----------------------------------------------------|
|-----------------------------------------------------|
|--11-11111111/9-6-6666\9-11-11111111/9-6-6666/4\6/4--|
|--x--x-x-x-x-/x-x-xxxx\x-x--x-x-x-x-/x-x-xxxx/x\x/x--|
|--9--9-9-9-9-/7-4-4444\7-9--9-9-9-9-/7-4-4444/2\4/2--|
|-----------------------------------------------------|

|------------------------------------|
|-------xxxx--------------xxxx-------|
|-------xxxx--------------xxxx-------|
|--4444-xxxx-777700009999-xxxx-0--2--|
|--4444-xxxx-777700009999-xxxx-0--2--|
|--4444------777700009999------0--2--|

play twice
|--9-------9/12----------|
|-------10--------12-10--|
|----11---------9--------|
|------------------------|
|------------------------|
|------------------------|

verse
play twice
|--4----7-----2--|
|--7----10----5--|
|--6----9-----4--|
|--4----7-----2--|
|--4----7-----2--|
|--4----7-----2--|

then play
|-------------------------------------------------|
|-------------------------------------------------|
|--9-9--9-9--13-13--13-1314--9-9--9-9--13-13-14/--|
|--x-x--x-x--x--x---x--x-x---x-x--x-x--x--x--x-/--|
|--7-7--7-7--11-11--11-1112--7-7--7-7--11-11-12/--|
|-------------------------------------------------|

chorus
play twice
|----------------------------------------|
|-------xxxx--------------xxxx-----------|
|-------xxxx--------------xxxx-----------|
|--4444-xxxx-777700009999-xxxx-00000000--|
|--4444-xxxx-777700009999-xxxx-00000000--|
|--4444------777700009999------00000000--|

|-----------------------------------------------------|
|-----------------------------------------------------|
|--11-11111111/9-6-6666\9-11-11111111/9-6-6666/4\6/4--|
|--x--x-x-x-x-/x-x-xxxx\x-x--x-x-x-x-/x-x-xxxx/x\x/x--|
|--9--9-9-9-9-/7-4-4444\7-9--9-9-9-9-/7-4-4444/2\4/2--|
|-----------------------------------------------------|

|------------------------------------|
|-------xxxx--------------xxxx-------|
|-------xxxx--------------xxxx-------|
|--4444-xxxx-777700009999-xxxx-0--2--|
|--4444-xxxx-777700009999-xxxx-0--2--|
|--4444------777700009999------0--2--|

solo
|--12-0-12----------------------9-0-9-------------------------|
|----------10-0-10/7-7777/5\7\9-------7-0-7-55-101010999/5\7--|
|-------------------------------------------------------------|
|-------------------------------------------------------------|
|-------------------------------------------------------------|
|-------------------------------------------------------------|

after that

guitar 1 plays
|------------------------------------------------|
|-----9-------9-------5-----------14---------12--|
|-------9-------9-------6------14---------13-----|
|------------------------------------------------|
|--7-------9-------5-------12---------11---------|
|------------------------------------------------|
play twice

guitar 2 plays
|----------------------------------------------------------------------|
|----------------------------------------------------------------------|
|--9999999999999999-11111111111111111111111111111111-7777777777777777--|
|--xxxxxxxxxxxxxxxx-x-x-x-x-x-x-x-x-x-x-x-x-x-x-x-x--xxxxxxxxxxxxxxxx--|
|--7777777777777777-9-9-9-9-9-9-9-9-9-9-9-9-9-9-9-9--5555555555555555--|
|----------------------------------------------------------------------|

|-------------------------------------|
|-------------------------------------|
|--1414141414141414-1313131313131313--|
|--x-x-x-x-x-x-x-x--x-x-x-x-x-x-x-x---|
|--1212121212121212-1111111111111111--|
|-------------------------------------|

|----------------------------------------------------------------------|
|----------------------------------------------------------------------|
|--9999999999999999-11111111111111111111111111111111-7777777777777777--|
|--xxxxxxxxxxxxxxxx-x-x-x-x-x-x-x-x-x-x-x-x-x-x-x-x--xxxxxxxxxxxxxxxx--|
|--7777777777777777-9-9-9-9-9-9-9-9-9-9-9-9-9-9-9-9--5555555555555555--|
|----------------------------------------------------------------------|

|--------------------|
|--------------------|
|--------------------|
|--7-----7-6------6--|
|--7777777766666666--|
|--7777777766666666--|

chorus
|--9-------9/12----------|--9-------9-------------|
|-------10--------12-10--|-------10---12-10-9-----|
|----11---------9--------|----11--------------11--|
|------------------------|------------------------|
|------------------------|------------------------|
|------------------------|------------------------|
      play 4 times                   once

|----------------------------------------|
|-------xxxx--------------xxxx-----------|
|-------xxxx--------------xxxx-----------|
|--4444-xxxx-777700009999-xxxx-00000000--|
|--4444-xxxx-777700009999-xxxx-00000000--|
|--4444------777700009999------00000000--|

|-----------------------------------------------------|
|-----------------------------------------------------|
|--11-11111111/9-6-6666\9-11-11111111/9-6-6666/4\6/4--|
|--x--x-x-x-x-/x-x-xxxx\x-x--x-x-x-x-/x-x-xxxx/x\x/x--|
|--9--9-9-9-9-/7-4-4444\7-9--9-9-9-9-/7-4-4444/2\4/2--|
|-----------------------------------------------------|

|----------------------------------------|
|-------xxxx--------------xxxx-----------|
|-------xxxx--------------xxxx-----------|
|--4444-xxxx-777700009999-xxxx-00000000--|
|--4444-xxxx-777700009999-xxxx-00000000--|
|--4444------777700009999------00000000--|

outro
|--------------------------------------------------------------|
|--------------------------------------------------------------|
|--------------------------------------------------------------|
|--44444444-777700009999-00000000-44444444-777700009999-0-2-4--|
|--44444444-777700009999-00000000-44444444-777700009999-0-2-4--|
|--44444444-777700009999-00000000-44444444-777700009999-0-2-4--|

over top of chords
|------------9-----------12--|------------9--------|
|--9h10p9------9h10p9--------|--9h10p9-------------|
|---------11----------11-----|---------11----------|
|----------------------------|--------------0-2-4--|
|----------------------------|--------------0-2-4--|
|----------------------------|--------------0-2-4--|

hope that helps plz rate and any comments let us kno on my profile which is
http://profile.ultimate-guitar.com/farmerjon1988/

cheers
comments
print report bad tab
4 comments total. Showing first comments.
0 reply
warnbroom wrote on March 29 2011, 07:18 pm

sorry I don't think this tab is correct, I couldn't play it in the right tune with original version, How did u play it ?

0 reply
farmerjon1988 wrote on April 1 2011, 01:15 pm

i play it in drop Db and it should be right ive played it with afew different versions and its sounded fine :)

+2 reply
xaldousx wrote on October 18 2011, 09:21 am

this tab is perfect man! thanks.. @warnbroom- play it with drop c#. this tab would sound just right.

I want to post or [tab]
guest
You may want to rate the tab now too:
select rating
Please do not post tabs as comments. Select "correction" instead!