Oops, an error
Loading. Please wait.

Burn The Night Away Chords

version 2
version 2

Whole song

Interactive

17,708 views 18 this week
2 commentsread comments
1 2 3 4 5
x 11
add to favorites
launch autoscroll
font size
0
reset
transpose
0
reset
simplify chords
display chords
guitar tuner
Autoscroll
slow
fast
+/-
esc
set tempo
stop
Help us to improve Ultimate-Guitar.com Take our survey!
×
Author
Tuning
D# G# C# F# A# D#
Song: Burn The Night Away
Band: There For Tomorrow
Album: A Little Faster
Tabbed by: AnnoyingXP

this is how i play it and i think that there are some mistakes, so if something 
sounds wrong to you, please comment


Tuning: Half-step down

Chords used:
Dsus7   xx2033
D       xx0232
G       xx57x7
D*      xx4x35
Cadd9*  x32003
Cadd9   x32033
Cadd9** x32030


Intro:
   Dsus7             D                 G        D*       Cadd9*
e|---3-x-3----3-x-3----2-x-2----2-x-2----7-x-7----5-x-5------x--------x---|
B|---3-x-3----3-x-3----3-x-3----3-x-3------x------3-x-3----0-x-0----0-x-0-|
G|-----x--------x--------x--------x------7-x-7------x------0-x-0----0-x-0-|
D|-2---x----2---x----0---x----0---x----5---x----4---x--------x--------x---|
A|-----x--------x--------x--------x--------x--------x----3---x----3---x---|
E|-----x--------x--------x--------x--------x--------x--------x--------x---|


Verses 1:
play intro 2x


Pre-chorus:
   D        Dsus7    Cadd9*            D*       G       Dsus7
e|---2-x-2----3-x-3------x--------x------5-x-5----7-x-7---3--|
B|---3-x-3----3-x-3----0-x-0----0-x-0----3-x-3------x-----3--|
G|-----x--------x------0-x-0----0-x-0------x------7-x-7---0--|
D|-0---x----2---x--------x--------x----4---x----5---x-----2--|
A|-----x--------x----3---x----3---x--------x--------x--------|
E|-----x--------x--------x--------x--------x--------x--------|


Chorus:
            Cadd9
Just let me burn the night away
                D  
Oh, baby let me burn the night away
                       Dsus7              D
By thinking of all the simple things you say to me
     Cadd9              D
that get me through the day
    Dsus7        Cadd9
e|--------------3-3--|
B|----------3-----3--|
G|-------0--------0--|
D|--2-------------2--|
A|----------------3--|
E|-------------------|
You keep me wide awake 

    Dsus7        
e|--------------3-3--|
B|----------3-----3--|
G|-------0--------0--|
D|--2-------------2--|
A|-------------------|
E|-------------------|  
You keep me wide awake 

(each note is plucked when the syllables above are sang, and then the chord is 
strummed when "awake" is sang)

(you can tap the guitar like they do in the song after "awake")


Verse 2:
play intro 2x


Pre-chorus


Chorus:
            Cadd9
Just let me burn the night away
                D  
Oh, baby let me burn the night away
                       Dsus7              D
By thinking of all the simple things you say to me
     Cadd9              D
that get me through the day
            Dsus7
And it's so hard
              D
to catch your feelings when you
 Cadd9      D     
 always run away

    Dsus7        Cadd9
e|--------------3-3--|
B|----------3-----3--|
G|-------0--------0--|
D|--2-------------2--|
A|----------------3--|
E|-------------------|
You keep me wide awake 
  
    D            Dsus7
You keep me wide awake (strum Cadd9, D and Dsus7 while gradually increasing the volume)
 

Bridge:
       Cadd9**            D
You're making it hard for me to just start
 Dsus7           Cadd9
 over like we're new
        Cadd9**    
Oh, the whole world told me
         D
I should disappear
          Dsus7                Cadd9 
cause I'm falling in love with you


Chorus:
            Cadd9
Just let me burn the night away
                D  
Oh, baby let me burn the night away
                       Dsus7             D
By thinking of all the simple things you say to me
     Cadd9              D
that get me through the day
            Dsus7
And it's so hard
              D
to catch your feelings when you
 Cadd9      D    
 always run away

    Dsus7        Cadd9
e|--------------3-3--|
B|----------3-----3--|
G|-------0--------0--|
D|--2-------------2--|
A|----------------3--|
E|-------------------|
You keep me wide awake (tap the guitar)

    Dsus7        
e|--------------3-3~-|
B|----------3-----3~-|
G|-------0--------0~-|
D|--2-------------2~-|
A|-------------------|
E|-------------------|  
You keep me wide awake 
Suggest correction
comments
print report bad tab
2 comments total.
0 reply
o7dmacko7 10 Dec 24, 2009 11:28 AM

amazing job! :D

0 reply
lgunit 10 Jan 11, 2011 07:08 PM

purely amazing,

guest
You may want to rate the tab now too:
select rating
Wanna post a correction for this tab? Suggest correction