Oops, an error
Loading. Please wait.

Hunt Hunt Hunt Bass Tab

version 1
version 1

Whole song

Interactive

5,389 views 12 this week
no commentswrite comment
1 2 3 4 5
x 3
add to favorites
launch autoscroll
font size
0
reset
guitar tuner
Autoscroll
slow
fast
+/-
esc
set tempo
stop
Help us to improve Ultimate-Guitar.com Take our survey!
×
Author
Difficulty
intermediate
Check out my bass cover of this song!

http://www.youtube.com/watch?v=ht4XTqDblzM

Check out my youtube channel!

http://www.youtube.com/user/chrisistheazn?feature=mhee


Intro

G-------s/9--------------s/9-------------s/9-------------s/9-----------|
D-----------7----------------7---------------7---------------7---------|
A-------------9----------------9---0-0---------9---------------9-------| X2
D-4-4--------------4-4-----------------------------0-0-----------------|

Verse 1

G-------------------------------------------|
D--------44--------44--------44-------------|
A----------------------0-0------------------| X2
D-4-4--------4-4-----------------0-0--------|

G----------------------------------------------------------------|
D----------------------------------------------------------------|
A------s/7-9-9--------s/7-9-9---0-0--s/7-9-9--------s/7-9-9------| X2
D-4-4------------4-4---------------------------0-0---------------|
e-Chorus 1

G-------------------------------------------------------------------|
D-------------------------------------------------------------------|
A-------------------------------------------------------------------|
D-4444444444444444444444444444444422222222222222222222222222222222--|

(those are 11 not 1)

G-------------------------------------------------------------------------|
D-------------------------------------------------------------------------|
A-------------------------------------------------------------------------|
D-9999999999999999999999999999999991111111111111111111111111111111111/s---|

Chorus

G-------------------------------------------------------------------|
D-------------------------------------------------------------------|
A-------------------------------------------------0-0-0-0-4-4-4-4---| X2
D-0-0-0-0-0-0-0-0-2-2-2-2-2-2-2-2-4-4-4-4-4-4-4-4-------------------|

G--------------------------|
D--------------------------|
A--------------------------|
D-0-0-0-0-0-0-0-0--2--2----|

After Chorus


G---------------------------------------------------|
D---------------------------------------------------|
A---------------------------------------------------|
D-4-4---4---4---0---11/s----4-4---4---4---14/s------|

Verse 2

G-------s/9--------------s/9-------------s/9-------------s/9-----------|
D-----------7----------------7---------------7---------------7---------|
A-------------9----------------9---0-0---------9---------------9-------| X2
D-4-4--------------4-4-----------------------------0-0-----------------|

Pre-Chorus 2

G-------------------------------------------------------------------|
D-------------------------------------------------------------------|
A-------------------------------------------------------------------|
D-4444444444444444444444444444444422222222222222222222222222222222--|

(those are 11 not 1)

G-------------------------------------------------------------------------|
D-------------------------------------------------------------------------|
A-------------------------------------------------------------------------|
D-9999999999999999999999999999999991111111111111111111111111111111111/s---|

Chorus

G-------------------------------------------------------------------|
D-------------------------------------------------------------------|
A-------------------------------------------------0-0-0-0-4-4-4-4---| X2
D-0-0-0-0-0-0-0-0-2-2-2-2-2-2-2-2-4-4-4-4-4-4-4-4-------------------|

G--------------------------|
D--------------------------|
A--------------------------|
D-0-0-0-0-0-0-0-0--2--2----|

Bridge

G-----------------------|
D-----------------------|
A-----------------------|
D-4-4/s----------4-4/s--|

G-------------------------------------------------------------------|
D---------------------------7-6-------------------------------------|
A-------------------------------7-----------------------------------|
D-4-4-4-4-4-4-4-4-4-4-4-4-4-------7-7-7-7-7-7-7-7-7-7-7-7-7-4-5-7---|

G--------------------------------------------------------------------------------|
D---------------------------------------------------------------------14---------|
A---------------------------------------------12----12------------------0-12-14--|
D-9-9-9-9-9-9-9-9-9-9-9-9-9-9-9-9-12-12-12-12----12----12-14-14-14-14------------|

Final Chorus

G-------------------------------------------------------------------|
D-------------------------------------------------------------------|
A-------------------------------------------------0-0-0-0-4-4-4-4---| X2
D-0-0-0-0-0-0-0-0-2-2-2-2-2-2-2-2-4-4-4-4-4-4-4-4-------------------|

G------------------------------------------------------6------------|
D-----------------2---2---2---2---4---4---4---4---7--------4-6-7----|
A-5---5---5---5--------------------------------------------------0--|
D---0---0---0---0---2---2---2---2---4---4---4---4----7---7----------|

G--------------------------------------------------------------------|
D--------------------------------------------------------------------|
A-----------------------7/s------------------------------------------|
D-0-0-0-0-0-0-0-0---2------------------------------------------------|
Suggest correction
Give kudos to tab author, rate the tab!
1 2 3 4 5
comments
print report bad tab
guest
You may want to rate the tab now too:
select rating
Wanna post a correction for this tab? Suggest correction