Oops, an error
Loading. Please wait.

Hunt Hunt Hunt Tab

version 1
version 1

Whole song

Interactive

5,846 views 7 this week
no commentswrite comment
1 2 3 4 5
accurate
x 5
add to favorites
launch autoscroll
font size
0
reset
how to read this tab
guitar tuner
Tab Pro tools
  • play this tab
  • loop segment
  • change instrument
  • show fretboard
  • metronome
×
Best way to learn
"Hunt Hunt Hunt"
Autoscroll
slow
fast
+/-
esc
set tempo
stop
Contributor
Difficulty
intermediate
Band: There For Tomorrow
Song: Hunt Hunt Hunt
Album: The Verge
Album Released: 28th June 2011
Tuning: Dropped D Flat

Some of the chords/notes may be wrong as this is our first time tabbing by ear, 
but we are pretty sure its right.

Maika Haini Maile - Guitar 2 
Christian Climer – Guitar 1 

Intro
Guitar 1&2                                       Guitar 2
eb|----------------------------------------------| |---------|
Bb|----------------------------------------------| |---------|
Gb|---------6-6-6-6-2-----------9-9-9-9-2--------| |-------6-|
Db|-0--4-4—-x-x-x-x-2--x2---7-7-x-x-x-x-2----0-0-| |-6b7p4---|
Ab|-0--4-4—-4-4-4-4-0-------7-7-7-7-7-7-0----0-0-| |---------|
Db|-0--4-4------------------7-7--------------0-0-| |---------|

Verse 1
Guitar 1
eb|-14-16-17--14-16-17--14-16-17--14-16-17-|
Bb|----------------------------------------|
Gb|----------------------------------------|
Db|----------------------------------------|
Ab|----------------------------------------|
Db|----------------------------------------|

Guitar 2 – Come in after 2nd '17' note with this:
eb|----------------------------------------------------|
Bb|----------------------------------------------------|
Gb|------6-6-6-6-2-----------9-9-9-9-2---------------6-| x2
Db|-4-4—-x-x-x-x-2—x2----7-7-x-x-x-x-2----0-0--6b7p4---|
Ab|-4-4—-4-4-4-4-0-------7-7-7-7-7-7-0----0-0----------|
Db|-4-4------------------7-7--------------0-0----------|

Pre-Chorus
Guitar 2
eb|--------------------------------|
Bb|--------------------------------|
Gb|--------------------------------|
Db|--------------------------------|
Ab|--------------------------------|
Db|-4-x16---2-x16---9-x16---11-x16-|

Guitar 1 – Come in after '4' is played 16 times with this:
eb|-14----12----14----12------14--12--14--12---|
Bb|----14----14----14----14-----14--14--14--14-|
Gb|--------------------------------------------|
Db|--------------------------------------------|
Ab|--------------------------------------------|
Db|--------------------------------------------|
Chorus

Guitar 2                               Last time:
eb|------------------------------|    |-----------|
Bb|------------------------------|    |-----------|
Gb|------------------------------| x2 |-----------|
Db|-0-----2-----4-----7-----9----|    |-0-----2-2-|
Ab|-0-x8—-2-x8--4-x8--7-x4--9-x4-|    |-0-x8--2-2-|
Db|-0-----2-----4-----7-----9----|    |-0-----2-2-|

Guitar 1
eb|-------------------------------|    |--------------|
Bb|-14-x8-17-x8-19-x8-21-x4-22-x4-|    |-14-x8--17-17-|
Gb|-------------------------------| x2 |--------------|
Db|-------------------------------|    |--------------| 
Ab|-------------------------------|    |--------------|
Db|-------------------------------|    |--------------|

Post chorus
Guitar 1&2
eb|-----5-5-5-----5-5-5-----5-5-----5-5-5-|
Bb|-----5-5-5-----5-5-5-----5-5-----5-5-5-|
Gb|-----4-4-4-----4-4-4-----4-4-----4-4-4-| x2
Db|-4-4-------4-4-------4-4-----4-4-------|
Ab|-4-4-------4-4-------4-4-----4-4-------|
Db|-4-4-------4-4-------4-4-----4-4-------|

Verse 2
Guitar 1
eb|-14-16-17--14-16-17--14-16-17--14-16-17-|
Bb|----------------------------------------|
Gb|----------------------------------------|
Db|----------------------------------------|
Ab|----------------------------------------|
Db|----------------------------------------|

Guitar 2 – Come in after 2nd '17' note with this:
eb|----------------------------------------------------|
Bb|----------------------------------------------------|
Gb|------6-6-6-6-2-----------9-9-9-9-2---------------6-| x2
Db|-4-4—-x-x-x-x-2—x2----7-7-x-x-x-x-2----0-0--6b7p4---|
Ab|-4-4—-4-4-4-4-0-------7-7-7-7-7-7-0----0-0----------|
Db|-4-4------------------7-7--------------0-0----------|

Pre-Chorus
Guitar 2
eb|--------------------------------|
Bb|--------------------------------|
Gb|--------------------------------|
Db|--------------------------------|
Ab|--------------------------------|
Db|-4-x16---2-x16---9-x16---11-x16-|

Guitar 1 – Come in after '4' is played 16 times with this:
eb|-14----12----14----12------14--12--14--12---|
Bb|----14----14----14----14-----14--14--14--14-|
Gb|--------------------------------------------|
Db|--------------------------------------------|
Ab|--------------------------------------------|
Db|--------------------------------------------|

Chorus
Guitar 2                               Last time:
eb|------------------------------|    |-----------|
Bb|------------------------------|    |-----------|
Gb|------------------------------| x2 |-----------|
Db|-0-----2-----4-----7-----9----|    |-0-----2-2-|
Ab|-0-x8—-2-x8--4-x8--7-x4--9-x4-|    |-0-x8--2-2-|
Db|-0-----2-----4-----7-----9----|    |-0-----2-2-|

Guitar 1
eb|-------------------------------|    |--------------|
Bb|-14-x8-17-x8-19-x8-21-x4-22-x4-|    |-14-x8--17-17-|
Gb|-------------------------------| x2 |--------------|
Db|-------------------------------|    |--------------| 
Ab|-------------------------------|    |--------------|
Db|-------------------------------|    |--------------|


Post chorus
eb|-----5-5-5-----5-5-5-----5-5-----5-5-5-|
Bb|-----5-5-5-----5-5-5-----5-5-----5-5-5-|
Gb|-----4-4-4-----4-4-4-----4-4-----4-4-4-| x2
Db|-4-4-------4-4-------4-4-----4-4-------|
Ab|-4-4-------4-4-------4-4-----4-4-------|
Db|-4-4-------4-4-------4-4-----4-4-------|

Bridge
Guitar 1
eb|------------9------|
Bb|---10---9-------10-|
Gb|-9----9---9---9----| x8
Db|-------------------|
Ab|-------------------|
Db|-------------------|
Guitar 2
eb|-----------------------------------------|
Bb|-----------------------------------------|
Gb|-----------------------------------------|
Db|-4------7------9------11------0-----2----|
Ab|-4-x16--7-x16--9-x16--11-x16--0-x8--2-x8-|
Db|-4------7------9------11------0-----2----|

Chorus
Guitar 2                               Last time:
eb|------------------------------|    |-----------|
Bb|------------------------------|    |-----------|
Gb|------------------------------| x2 |-----------|
Db|-0-----2-----4-----7-----9----|    |-0-----2-2-|
Ab|-0-x8—-2-x8--4-x8--7-x4--9-x4-|    |-0-x8--2-2-|
Db|-0-----2-----4-----7-----9----|    |-0-----2-2-|

Guitar 1
eb|-------------------------------|    |--------------|
Bb|-14-x8-17-x8-19-x8-21-x4-22-x4-|    |-14-x8--17-17-|
Gb|-------------------------------| x2 |--------------|
Db|-------------------------------|    |--------------| 
Ab|-------------------------------|    |--------------|
Db|-------------------------------|    |--------------|
comments
print report bad tab
I want to post or [tab]
guest
You may want to rate the tab now too:
select rating
Please do not post tabs as comments. Select "correction" instead!