Oops, an error
Loading. Please wait.

Hunt Hunt Hunt Bass Tab

version 2
version 2

Whole song

Interactive

880 views 1 this week
no commentswrite comment
1 2 3 4 5
please rate
add to favorites
launch autoscroll
font size
0
reset
guitar tuner
Autoscroll
slow
fast
+/-
esc
set tempo
stop
Help us to improve Ultimate-Guitar.com Take our survey!
×
Contributor
looking at the music video this is really a 4 string song
but not standard tuning.
so instead of doin all that, just use a standard 5 string.
this is my first time actually tabing, so comment and tell me how i did.

Mr.Delano




intro

G------s/9------------s/9----------s/9---------s/9--------|
D----------7-5------------7-5----------7-5----------7-5---|
A---------------------------------------------------------|
E---------------------------------------------------------|
B--4-4----------4-4------------7-7---------0-0------------| 2x

VERSE 1

G---------------------------------------------------------|
D---------------------------------------------------------|
A---------------------------------------------------------|
E-00---3-00---0-33---3-----00---3-00---0-33---3-----------|
B----------------------00-----------------------00--------|


-----------------------------------------|
-----------------------------------------|
------6-88------6-88------6-88------6-88-|
-00---------00--------33-----------------|
--------------------------------00-------| 2x

intro to chorus


G---------------------------------------|
D---------------------------------------|
A---------------------------------------|
E---------------------------------------|
B-44444444444444444422222222222222222222|


------------------------------------------|
------------------------------------------|
------------------------------------------|
5555555555555555555577777777777777777777--|
------------------------------------------|

chorus

G------------------------------------------------------------------------|
D------------------------------------------------------------------------|
A------------------------------------------------------------------------|
E------------------00000000-3333/7777------------------00000000-3333/7777|
B-0000000022222222-------------------00000000-22222222-------------------|


G------------------------------------------------------------------------|
D------------------------------------------------------------------------|
A------------------------------------------------------------------------|
E------------------00000000-3333/7777------------------00000000-3333/7777|
B-0000000022222222-------------------00000000-22222222-------------------|

G----|
D----|
A----|
E----|
B-22-|

bridge to the verse

G-------------------------------|
D-------------------------------|
A-------------------------------|
E-------------------------------|
B-44--4--4--4-0-2-44--4--4--4/0-|

Verse 2

G------s/9------------s/9----------s/9---------s/9--------|
D----------7-5------------7-5----------7-5----------7-5---|
A---------------------------------------------------------|
E---------------------------------------------------------|
B--4-4----------4-4------------7-7---------0-0------------| 2x

intro to chorus


G---------------------------------------|
D---------------------------------------|
A---------------------------------------|
E---------------------------------------|
B-44444444444444444422222222222222222222|


------------------------------------------|
------------------------------------------|
------------------------------------------|
5555555555555555555577777777777777777777--|
------------------------------------------|


chorus

G------------------------------------------------------------------------|
D------------------------------------------------------------------------|
A------------------------------------------------------------------------|
E------------------00000000-3333/7777------------------00000000-3333/7777|
B-0000000022222222-------------------00000000-22222222-------------------|


G------------------------------------------------------------------------|
D------------------------------------------------------------------------|
A------------------------------------------------------------------------|
E------------------00000000-3333/7777------------------00000000-3333/7777|
B-0000000022222222-------------------00000000-22222222-------------------|

bridge into solo

G-------------------------------|
D-------------------------------|
A-------------------------------|
E-------------------------------|
B-44--4--4--4-0-2-44--4--4--4/0-|

Solo

---------------------------------------------------------------------|
---------------------------------------------------------------------|
----------------------------------------------------4444444466666666-|
------------------------------------555555555555555------------------|
-4444444444444-7-6-4-7777777777777-----------------------------------|


chorus

G------------------------------------------------------------------------|
D------------------------------------------------------------------------|
A------------------------------------------------------------------------|
E------------------00000000-3333/7777------------------00000000-3333/7777|
B-0000000022222222-------------------00000000-22222222-------------------|


G------------------------------------------------------------------------|
D------------------------------------------------------------------------|
A------------------------------------------------------------------------|
E------------------00000000-3333/7777------------------00000000-3333/7777|
B-0000000022222222-------------------00000000-22222222-------------------|

comments
We did not receive enough feedback on this tab! Please rate:
print report bad tab
1 2 3 4 5
I want to post or [tab]
guest
You may want to rate the tab now too:
select rating
Please do not post tabs as comments. Select "correction" instead!