Oops, an error
Loading. Please wait.

Icebox Tab

version 1
version 1

Whole song

12,567 views 1 this week
3 commentsread comments
1 2 3 4 5
2 more votes to show rating
add to favorites
launch autoscroll
font size
0
reset
how to read this tab
guitar tuner
Autoscroll
slow
fast
+/-
esc
set tempo
stop
Help us to improve Ultimate-Guitar.com Take our survey!
×
Intro/Verse(Light Clean Guitar): 4 Times
D||-------13-------13-------13-------13-------12-------12-------12--10-8-10------8------8--|
A||-10h11----10h11----10h11----10h11----10h11----10h11----10h11--------------5h6----5h6----|
F||----------------------------------------------------------------------------------------|
C||----------------------------------------------------------------------------------------|
G||----------------------------------------------------------------------------------------|
C||----------------------------------------------------------------------------------------|

Chorus(Light Clean/Acoustic Guitar Sound):

D||-----------------|
A||-------------3---|
F||---3----5----2---|
C||---3----5----0---| figure out rhythm it's quite simple
G||---1----3----0---|
C||-------------0---|

Play Verse Again

Play Chorus Again (this time with distortion)

End on:

D||-------|
A||-------|
F||---3---|
C||---3---|
G||---1---|
C||-------|

Drum/Vocal Break

Then play Intro/Verse 1 time

Then Chorus Again

End on:

D||-------13-------13-------13-------13-------12-------12-------12----|
A||-10h11----10h11----10h11----10h11----10h11----10h11----10h11-------|
F||-------------------------------------------------------------------|
C||-------------------------------------------------------------------|
G||-------------------------------------------------------------------|
C||-------------------------------------------------------------------|
Suggest correction
Give kudos to tab author, rate the tab!
1 2 3 4 5
comments
print report bad tab
3 comments total.
+1 reply
blackomen9 165 Mar 09, 2009 01:56 PM

the song is in drop c i just played it now so other then that your tab is fine

0 reply
xdays_ive_diedx 570 Mar 09, 2009 08:35 PM

If you want it in Drop C, just raise everything up 2 frets. But, I'm 98% positive this song is NOT played in Dropped C, but okay.

0 reply
xdays_ive_diedx 570 Mar 09, 2009 08:41 PM

hmm, after watching live and playing along in Dropped C, it does seems to fit better, and the last chord of the Chorus sounds better as open. Will update as so.

guest
You may want to rate the tab now too:
select rating
Wanna post a correction for this tab? Suggest correction