Oops, an error
Loading. Please wait.

Just In Time Tab

version 2
version 2

Whole song

3,331 views 3 this week
no commentswrite comment
1 2 3 4 5
excellent!
x 4
add to favorites
launch autoscroll
font size
0
reset
how to read this tab
guitar tuner
Tab Pro tools
  • play this tab
  • loop segment
  • change instrument
  • show fretboard
  • metronome
×
Best way to learn
"Just In Time"
Autoscroll
slow
fast
+/-
esc
set tempo
stop
Contributor
Just In Time
There For Tomorrow
A Little Faster

1st Tab! Should be 90% correct. If you find any mistakes please comment with corrections.

Standard Tuning


INTRO and VERSE
E|---------------------|
B|---------------------|
G|---------------------|
D|---------------------|
A|----4-4-4-4-4-4-4-4--|
E|---7-7-7-7-7-7-7-7---|

PRE-CHORUS
E|-----------------------------------|
B|-----------------------------------|
G|-----------------------------------|
D|--6-----2-----6-----2-----4-----7~~|
A|--6 X8--2 X8--6 X8--2 X8--4 X8--7~~|
E|--4-----0-----4-----0-----2-----5~~|

CHORUS
E|-------------------------------------------------|
B|-------------------------------------------------|
G|-------------------------------------------------|
D|--9-----4-----2------9-----4-----2------9-----4~~|
A|--9 X8--4 X8--2 X16--9 X8--4 X8--2 X16--9 X8--4~~|
E|--7-----2-----0------7-----2-----0------7-----2~~|

VERSE 2
E|---------------------|
B|---------------------|
G|---------------------|
D|---------------------|
A|----4-4-4-4-4-4-4-4--|
E|---7-7-7-7-7-7-7-7---|


PRE-CHORUS
E|-----------------------------------------|
B|-----------------------------------------|
G|-----------------------------------------|
D|--6------2------6------2------4------7---|
A|--6 X12--2 X12--6 X12--2 X12--4 X12--7 X7|
E|--4------0------4------0------2------5---|
   PM ...............................

CHORUS
E|------------------------------------------------------|
B|------------------------------------------------------|
G|------------------------------------------------------|
D|--9------4------2------9------4------2------9------4~~|
A|--9 X16--4 X16--2 X32--9 X16--4 X16--2 X32--9 X16--4~~|
E|--7------2------0------7------2------0------7------2~~|


E|--------------|
B|--------------|
G|--8-6---------|
D|------8-8--6--|
A|--------------|
E|--------------|

BRIDGE
E|--------------------------------------------11-11-14---------|
B|----11---11------11---11------14---14-----14-----------------|
G|--8----8-------8----8-------11----11----11-------------------|
D|------------11-----------11----------------------------------|
A|-------------------------------------------------------------|
E|-------------------------------------------------------------|

E|--14--11-9-X3-14~--|
B|-------------------| 
G|-------------------|
D|-------------------|
A|-------------------|
E|-------------------|


CHORUS
E|------------------------------|
B|------------------------------|
G|------------------------------|
D|-----------------------2------|
A|-4-4-4-4-4-4-4-4-4-----2 X16--|
E|7-7-7-7-7-7-7-7-7-7----0------|

E|------------------------------------------------------|
B|------------------------------------------------------|
G|------------------------------------------------------|
D|--9------4------2------9------4------2------9------4~~|
A|--9 X16--4 X16--2 X32--9 X16--4 X16--2 X32--9 X16--4~~|
E|--7------2------0------7------2------0------7------2~~|

OUTRO
E|---------------------|
B|---------------------|
G|---------------------|
D|---------------------|
A|----4-4-4-4-4-4-4-4--|
E|---7-7-7-7-7-7-7-7---|

comments
print report bad tab
I want to post or [tab]
guest
You may want to rate the tab now too:
select rating
Please do not post tabs as comments. Select "correction" instead!