Oops, an error
Loading. Please wait.

Left All Alone Tab

440 views 1 this week
no commentswrite comment
1 2 3 4 5
3 more votes to show rating
add to favorites
launch autoscroll
font size
0
reset
how to read this tab
guitar tuner
Autoscroll
slow
fast
+/-
esc
set tempo
stop
Help us to improve Ultimate-Guitar.com Take our survey!
×
Author
Difficulty
novice
There For Tomorrow – Left All Alone
Tuning: Standard
Tabbed By Me, (aaron_lehmann@hotmail.com)

I tried to get this tab last night and I couldn’t find it so I was learning 
master of puppets instead and when I played the part before the solo I 
figured that he plays an E minor in this song, then I spent like an hour 
and a half working out the whole song, pretty sweet. Its my first tab but 
I’ve been playing guitar for like four a half years so its a pretty good 
effort, except guitar 2 for the bridge, email any corrections.

Intro
Guitar 1 (Acoustic)

Above the riff Ive put the chords played but he doesnt play the whole 
chord just part of it, really!

 Em            G             D (sort of)   C              C
      X 2           X 2           X 2            X 1      X 1  
|-------------|-------------|-------------|--------------|-0~-|
|-------0-----|-------0-----|-------0-----|-------0------|-0~-|
|--------0----|--------0----|-----0--0----|--------0-----|-0~-|
|-----2---2---|-----0---0---|---0-----0---|-----2---2----|-2~-|
|---2-------2-|---2-------2-|-5---------5-|---3----------|-3~-|
|-0-----------|-3-----------|-------------|--------------|-X--|
The first time through play first part twice, after that play it through as 
shown

Verse 1
Guitar 1 (Acoustic)

Em
I watched you walk away from life
D
Helplessly gripping my own
Em
I lie awake in my strive
C
The lights you walked was so
Em               D                   C
The feeling that your still with me now
Em              D        C
Your watching me from the clouds


  Chorus
Guitar 1 (Acoustic)

G         D              Em  D   C       
I saw you break your innocence
G              D               
But you left me on my own
Em      D      C                
You left me all alone
C       D       E              
You left me all alone


  Repeat Intro


  Verse 2 (Same chords as verse 1)
Guitar 1 (Acoustic)

Em                             
I watched you walk away from life
D                             
My eyes wait for yours
Em                             
To feel your presence of life
C                             
My smiles now are forced
Em               D                    C
The feelings that you're still with me now
Em        D        C             
My soul is lost and found


  Chorus 2
Guitar 1 (Acoustic)

G         D              Em  D   C       
I saw you break your innocence
G              D               
But you left me on my own
Em      D      C                
You left me all alone
C       D       E              
You left me all alone

Guitar 2 (Distorted)
Its pretty much the same as guitar 1 but
Using power chords 

Double the No. Strums.   Play 2nd Time
  G    D    E  D  C       C  D  E    
|-----------------------|-----------|
|-----------------------|-----------|
|------7777-99-77-5555--|-5~-7~-----|
|-5555-7777-99-77-5555--|-5~-7~-2~--|
|-5555-5555-77-55-3333--|-3~-5~-2~--|
|-3333------------------|-------0~--|

  Interlude
Guitar 1
Repeat Intro Twice

2nd time through guitar 2 Plays This

|--------------------|
|--------------------|
|---------7~--5~-55--|
|-2~--5~--7~--5~-55--|
|-2~--5~--5~--3~-33--|
|-0~--3~-------------|

Guitar 1

Em  G  D  C

Guitar 2
Repeat previous chords but play twice as fast
Last time through cut halfway through the last chord

Bridge
Guitar 1 (Acoustic)
Same Chords As Before

E       G               D       C
My heart has been ripped away  (My Heart)
E      G               D      C  
But I have one thing to say  (My Heart)

Guitar 2 (Distorted) I dont think this part is right but its the 
best I could do, email me any corrections

                            X 4 
|------------------------------|
|------------------------------|
|--12-7-12--12-9-7--12-9-7-55--|
|--------------------------55--|
|--10-5-10--10-7-5--10-7-5-33--|
|------------------------------|


Chorus 3
Guitar 1 (Acoustic)

G         D              Em  D   C       
I saw you break your innocence
G              D               
But you left me on my own
Em      D      C                
You left me all alone 
G         D              Em  D   C       
I saw you break your innocence
G              D               
But you left me on my own
Em      D      C                
You left me all alone
C       D       E              
You left me all alone

Guitar 2 (Distorted)
I think he plays the riff from the bridge as well but I havent tabbed it 
coz its already there.

                        |Play last Time through
  G    D    E  D  C       C  D  E    
|-----------------------|-----------|
|-----------------------|-----------|
|------7777-99-77-5555--|-5~-7~-----|
|-5555-7777-99-77-5555--|-5~-7~-2~--|
|-5555-5555-77-55-3333--|-3~-5~-2~--|
|-3333------------------|-------0~--|


Outro 
Guitar 1

      X 3      X 1  
|-------------|-0~-|
|-------0-----|-0~-|
|--------0----|-0~-|
|-----2---2---|-2~-|
|---2-------2-|-2~-|
|-0-----------|-0~-|

that’s it, four pages of TFT Goodness and like two hours work…
Suggest correction
Give kudos to tab author, rate the tab!
1 2 3 4 5
comments
print report bad tab
guest
You may want to rate the tab now too:
select rating
Wanna post a correction for this tab? Suggest correction