Oops, an error
Loading. Please wait.

No More Room To Breathe Tab

version 1
version 1

Acoustic

Whole song

3,953 views 1 this week
no commentswrite comment
1 2 3 4 5
1 last vote to show rating
add to favorites
launch autoscroll
font size
0
reset
how to read this tab
guitar tuner
Autoscroll
slow
fast
+/-
esc
set tempo
stop
Help us to improve Ultimate-Guitar.com Take our survey!
×
Author
-------------------------------------------------------------------------------
                            No More Room To Breathe (Acoustic)- There For Tomorrow
-------------------------------------------------------------------------------
Tabbed by:Muhaimin93
Email:

Tuning:Drop D

okay. i tried to figure out the acoustic version of this song from this video : 
http://www.youtube.com/watch?v=cFhcQcmAV74 
Hope that my ears were fully functional so that this will be accurate :)

                            GUITAR 1 - MAIKA

INTRO
e|-----------------------------------------------------------------------|
B|-----------------------------------------------------------------------|
G|-----------------------------------------------------------------------|
D|-7------10-----3-----7------10-----3-----------------------------------|
A|-7-x16--10-x8--3-x8--7-x16--10-x8--3-x8--------------------------------|
D|-7------10-----3-----7------10-----3-----------------------------------|

VERSE 1 (palm muted)
e|-----------------------------------------------------------------------|
B|-----------------------------------------------------------------------|
G|--------------10-------------------10----------------------------------|
D|-7-----10-----10-x16--7-----10-----10-x16------------------------------| x2 
A|-7-x8--10-x8--8-------7-x8--10-x8--8-----------------------------------|
D|-7-----10-------------7-----10-----------------------------------------|

BRIDGE
e|-----------------------------------------------------------------------|
B|-8-----10---13-----6-----8-8-8-8-x-8-8-8-x-8---------------------------|
G|-7-----9----12-----5-----7-7-7-7-x-7-7-7-x-7---------------------------|
D|-5-x8--7-x8-10-x16-3-x16-5-5-5-5-x-5-5-5-x-5---------------------------|
A|-5-----7----10-----3-----5-5-5-5-x-5-5-5-x-5---------------------------|
D|-5-----7----10-----3-----5-5-5-5-x-5-5-5-x-5---------------------------|

1st CHORUS
e|-----------------------------------------------------------------------|
B|-10-----13------6------8-----------------------------------------------|
G|-9------12------5------7-----------------------------------------------|
D|-7-x16--10-x16--3-x16--5-x16-------------------------------------------|
A|-7------10------3------5-----------------------------------------------|
D|-7------10------3------5-----------------------------------------------|

VERSE 2 (palm muted)
e|-----------------------------------------------------------------------|
B|-----------------------------------------------------------------------|
G|-----------------------------------------------------------------------|
D|-7-----10-----3------7-----10-----3------------------------------------| x2
A|-7-x8--10-x8--3-x16--7-x8--10-x8--3-x16--------------------------------|
D|-7-----10-----3------7-----10-----3------------------------------------|

MINI BRIDGE :)
e|-----------------------------------------------------------------------|
B|-8-8-8-8-x-8-8-8-------------------------------------------------------|
G|-7-7-7-7-x-7-7-7-------------------------------------------------------|
D|-5-5-5-5-x-5-5-5-------------------------------------------------------|
A|-5-5-5-5-x-5-5-5-------------------------------------------------------|
D|-5-5-5-5-x-5-5-5-------------------------------------------------------|

2nd CHORUS
e|-----------------------------------------------------------------------|
B|-10-----13------6------8-----------------------------------------------|
G|-9------12------5------7-----------------------------------------------|
D|-7-x16--10-x16--3-x16--5-x16-------------------------------------------| x2
A|-7------10------3------5-----------------------------------------------|
D|-7------10------3------5-----------------------------------------------|

THE THINGY AFTER 2nd CHORUS
e|-----------------------------------------------------------------------|
B|-10-----13-------------------------------------------------------------|
G|-9------12-------------------------------------------------------------|
D|-7------10-------------------------------------------------------------|
A|-7-x16--10-x16---------------------------------------------------------|
D|-7------10-------------------------------------------------------------|

(Strum once for each..)
e|-----------------------------------------------------------------------|
B|-6--8--10--13--6--8--10--13--------------------------------------------|
G|-5--7--9---12--5--7--9---12--------------------------------------------|
D|-3--5--7---10--3--5--7---10--------------------------------------------|
A|-3--5--7---10--3--5--7---10--------------------------------------------|
D|-3--5--7---10--3--5--7---10--------------------------------------------|

(palm muted)
e|-----------------------------------------------------------------------|
B|-6------8------6------8------------------------------------------------|
G|-5------7------5------7------------------------------------------------|
D|-3-x16--5-x16--3-x16--5-x16--------------------------------------------|
A|-3------5------3------5------------------------------------------------|
D|-3------5------3------5------------------------------------------------|

3rd CHORUS (Strum once for 1st chord)
e|-----------------------------------------------------------------------|
B|-10-----13------6------8-----------------------------------------------|
G|-9------12------5------7-----------------------------------------------|
D|-7------10-x16--3-x16--5-x16-------------------------------------------| x2
A|-7------10------3------5-----------------------------------------------|
D|-7------10------3------5-----------------------------------------------|

OUTRO
e|-----------------------------------------------------------------------|
B|-----------------------------------------------------------------------|
G|-----------------------------------------------------------------------|
D|-7------10-----3-------------------------------------------------------|
A|-7-x16--10-x8--3-x8----------------------------------------------------|
D|-7------10-----3-------------------------------------------------------|

                            GUITAR 2 - CHRISTIAN

INTRO
e|-----------------------------------------------------------------------------------|
B|-------------------------------------12-12-12-12-----------------------------------|
G|---------------12-12-12-12---------------------------------12-12-------------------|
D|-7-7-9-9-10-10-------------9-9-10-10-------------9-9-10-10-------5-5-5-5-5-5-------| x2
A|-----------------------------------------------------------------------------------|
D|-----------------------------------------------------------------------------------|

VERSE 1 (after the 1st half of the verse...)
e|-----------------------------------------------------------------------|
B|-10-10-10-10-10-10-10-10-8-8-8-8-8-8-8-8-------------------------------|
G|-9--9--9--9--9--9--9--9--7-7-7-7-7-7-7-7-------------------------------|
D|-----------------------------------------------------------------------| x2
A|-----------------------------------------------------------------------|
D|-----------------------------------------------------------------------|

BRIDGE
e|-------------15-15-------------12-12-----------------------------------|
B|-12-12-13-13-------12-12-13-13-------12-12-13-13-----------------------|
G|-----------------------------------------------------------------------|
D|-----------------------------------------------------------------------| 
A|-----------------------------------------------------------------------|
D|-----------------------------------------------------------------------|

e|-------------15-15-------------12-12-----------------------------------|
B|-12-12-13-13-------12-12-13-13-------12-12-13-13-----------------------|
G|-----------------------------------------------------------------------|
D|-----------------------------------------------------------------------| 
A|-----------------------------------------------------------------------|
D|-----------------------------------------------------------------------|


e|-------------12-12------------12-12------------------------------------|
B|-12-12-13-13-------12-12-13-13------12-12-13-13------------------------|
G|-----------------------------------------------------------------------|
D|-----------------------------------------------------------------------|
A|-----------------------------------------------------------------------|
D|-----------------------------------------------------------------------|

e|-------------12--------------------------------------------------------|
B|-12-12-13-13----12-12-13-----------------------------------------------|
G|-----------------------------------------------------------------------|
D|-----------------------------------------------------------------------|
A|-----------------------------------------------------------------------|
D|-----------------------------------------------------------------------|

1st CHORUS
e|-----------------------------------------------------------------------|
B|-10-----8-----12-----13-----10-----8-----13-----12---------------------|
G|-9--x8--7-x8--11-x8--12-x8--9--x8--7-x8--12-x8--11-x8------------------|
D|-----------------------------------------------------------------------|
A|-----------------------------------------------------------------------|
D|-----------------------------------------------------------------------|

VERSE 2 (after 1st half of the verse...)
e|-----------------------------------------------------------------------|
B|--------------12----------------------12-------------------------------|
G|------12--------------12------12--------------12-----------------------|
D|-9-10----9-10----9-10----9-10----9-10----9-10--------------------------|
A|-----------------------------------------------------------------------|
D|-----------------------------------------------------------------------|

MINI BRIDGE
e|-----------------------------------------------------------------------|
B|-12-12-12-12-x-12-12-12------------------------------------------------|
G|-----------------------------------------------------------------------|
D|-----------------------------------------------------------------------|
A|-----------------------------------------------------------------------|
D|-----------------------------------------------------------------------|

2nd CHORUS
e|-----------------------------------------------------------------------|
B|-10-----8-----12-----13-----10-----8-----13-----12---------------------|
G|-9--x8--7-x8--11-x8--12-x8--9--x8--7-x8--12-x8--11-x8------------------|
D|-----------------------------------------------------------------------| x2
A|-----------------------------------------------------------------------|
D|-----------------------------------------------------------------------|

THINGY AFTER 2nd CHORUS
e|-------------15-15-------------12-12-----------------------------------|
B|-12-12-13-13-------12-12-13-13-------12-12-13-13-----------------------|
G|-----------------------------------------------------------------------|
D|-----------------------------------------------------------------------|
A|-----------------------------------------------------------------------|
D|-----------------------------------------------------------------------|

e|-------------15-15-------------12-12-----------------------------------|
B|-12-12-13-13-------12-12-13-13-------12-12-13--------------------------|
G|-----------------------------------------------------------------------|
D|-----------------------------------------------------------------------|
A|-----------------------------------------------------------------------|
D|-----------------------------------------------------------------------|

e|-----------------------------------------------------------------------|
B|-----------------------------------------------------------------------|
G|-----------------------------------------------------------------------|
D|---------SIT BACK AND ENJOY WATCHING GUITAR 1 PLAY xD -----------------|
A|-----------------------------------------------------------------------|
D|-----------------------------------------------------------------------|

3rd CHORUS
e|-----------------------------------------------------------------------|
B|-10-----8-----12-----13-----10-----8-----13-----12---------------------|
G|-9--x8--7-x8--11-x8--12-x8--9--x8--7-x8--12-x8--11-x8------------------|
D|-----------------------------------------------------------------------| x2
A|-----------------------------------------------------------------------|
D|-----------------------------------------------------------------------|

OUTRO
e|-----------------------------------------------------------------------------------|
B|-------------------------------------12-12-12-12-----------------------------------|
G|---------------12-12-12-12---------------------------------------------------------|
D|-7-7-9-9-10-10-------------9-9-10-10-------------9-9-10-10-------5-5-5-5-5-5-------|
A|-----------------------------------------------------------------------------------|
D|-----------------------------------------------------------------------------------|


play, comment, rate :) have fun
Suggest correction
Give kudos to tab author, rate the tab!
1 2 3 4 5
comments
print report bad tab
guest
You may want to rate the tab now too:
select rating
Wanna post a correction for this tab? Suggest correction