Oops, an error
Loading. Please wait.

No More Room To Breathe Tab

version 1
version 1

Whole song

1,951 views 1 this week
no commentswrite comment
1 2 3 4 5
accurate
x 3
add to favorites
launch autoscroll
font size
0
reset
how to read this tab
guitar tuner
Autoscroll
slow
fast
+/-
esc
set tempo
stop
Help us to improve Ultimate-Guitar.com Take our survey!
×
Author
Difficulty
Tuning
novice
D A D G B E
-------------------------------------------------------------------------------
                             No More Room To Breathe - There For Tomorrow
-------------------------------------------------------------------------------
Tabbed by: xX LightPyro Xx ...... this tab is in dropD ,TFT uses drop db tunning 
so just transpose it


e|-------------------------------------------------------------------------------------------|
B|-----------------------------------------13-13-13------------------------------------------|
G|-----------------13-13-13-13---------------------------------------13-13-------------------|
D|-8-8-10-10-11-11-------------10-10-11-11--------------10-10-11-11---------6-6-6-6-6-6-6-6--|x2
A|-------------------------------------------------------------------------------------------|
D|-------------------------------------------------------------------------------------------|

e|---------------------------------------------------------------------------|
B|---------------------------------------------------------------------------|
G|---------------------------------------------------------------------------|
D|--8--------11---------4------------0---------------------------------------|
A|--8--x8----11--x8-----4--x16-------0---------------------------------------|
D|--8--------11---------4------------0---------------------------------------|
.........................................................(pm)

e|---------------------------------------------------------------------------|
B|---------------------------------------------------------------------------|
G|---------------------------------------------------------------------------|
D|--8--------11---------4----------------------------------------------------|
A|--8--x8----11--x8-----4--x16-----------------------------------------------|  X4
D|--8--------11---------4----------------------------------------------------|
...............................................(pm)

e|---------------------------------------------------------------------------|
B|---------------------------------------------------------------------------|
G|---------------------------------------------------------------------------|
D|--8--------11---------4------------4---------------------------------------|
D|--8--x8----11--x8-----4--x8--------4--x5-----------------------------------|
D|--8--------11---------4------------4---------------------------------------|
.............................(pm)        (the last five strokes are not pm)

e|-------------16-16-------------13-13-----------------------------------|
B|-13-13-14-14-------13-13-14-14-------13-13-14-14-----------------------|
G|-----------------------------------------------------------------------|  x3
D|-----------------------------------------------------------------------| 
A|-----------------------------------------------------------------------|
D|-----------------------------------------------------------------------|

don¿ know how to play this part (0:50-0:53)

e|---------------------------------------------------------------------------|
B|---------------------------------------------------------------------------|
G|---------------------------------------------------------------------------|
D|--8--------11---------4----------6-----------8-8-8-------------------------|
A|--8-x15----11-x15-----4-x15------6-x15-------8-8-8-------------------------| X4  
D|--8--------11---------4----------6-----------8-8-8-------------------------|



(alternatively you can play   G|---6---------   istead of every   D|---11---------
                              D|---6---------                     A|---11---------
                              A|---4---------                     D|---11---------


e|---------------------------------------|
B|---------------------------------13----|
G|----------13---------------------------|
D|-10-11--------------10-11--------------|
A|---------------------------------------|
D|---------------------------------------|

e|--------------------|
B|--------------------|
G|----------13--------|
D|-10-11--------------|
A|--------------------|
D|--------------------|

e|---------------------------------------|
B|---------------------------------13----|
G|----------13---------------------------|
D|-10-11--------------10-11--------------|
A|---------------------------------------|
D|---------------------------------------|

e|--------------------|
B|--------------------|
G|----------13--------|
D|-10-11--------------|
A|--------------------|
D|--------------------|


still unable to kwo what this is  (0:27-0:29)............ xD

then.........

e|---------------------------------------------------------------------------|
B|---------------------------------------------------------------------------|
G|---------------------------------------------------------------------------|
D|--8--------11---------4--------------6-----------8-8-8---------------------|
A|--8--x15---11--x15----4--x15---------6-x15-------8-8-8---------------------| X2  
D|--8--------11---------4--------------6-----------8-8-8---------------------|







e|-------------16-16-------------13-13-----------------------------------|
B|-13-13-14-14-------13-13-14-14-------13-13-14-14-----------------------|
G|-----------------------------------------------------------------------| x2
D|-----------------------------------------------------------------------| 
A|-----------------------------------------------------------------------|
D|-----------------------------------------------------------------------|

e|--------------------------------------------------------------|
B|--------------------------------------------------------------|
G|--------------------------------------------------------------|
D|--8--------4-------------6--------4---------6-----------------|
A|--8--x4----4-x4----------6-x7-----4-x7------6---x5------------|       
D|--8--------4-------------6--------4---------6-----------------|
................................................................ pm)

e|-------------------------------------------------------------------|
B|-------------------------------------------------------------------|
G|-------------------------------------------------------------------|
D|-------------4--------------6----------4---------6-----------------|
A|-------------4--x16---------6--x16-----4--x16----6---x16-----------|       
D|-------------4--------------6----------4---------6-----------------|
.................................................................. pm)

e|---------------------------------------------------------------------------|
B|---------------------------------------------------------------------------|
G|---------------------------------------------------------------------------|
D|----6---6---6---6----6--6--6-----------------------------------------------|
A|----6---6---6---6----6--6--6-----------------------------------------------|
D|----6---6---6---6----6--6--6-----------------------------------------------|
          .       .

e|---------------------------------------------------------------------------|
B|---------------------------------------------------------------------------|
G|---------------------------------------------------------------------------|
D|----------11---------4-------------6---------------------------------------|
A|----------11--x16----4--x16--------6-x16-----------------------------------|       
D|----------11---------4-------------6---------------------------------------|

e|---------------------------------------------------------------------------|
B|---------------------------------------------------------------------------|
G|---------------------------------------------------------------------------|
D|--8--------10---------11--------------4-----------6------------------------|
A|--8--x13---10--x3-----11--x16---------4--x16------6---x16------------------|  X2  
D|--8--------10---------11--------------4-----------6------------------------|
             
e|--------------------------------------------------------------------------------------------|
B|------------------------------------------13-13-13-13---------------------------------------|
G|-----------------13-13-13-13-----------------------------------------13-13------------------|
D|-8-8-10-10-11-11--------------10-10-11-11---------------10-10-11-11--------6-6-6-6-6-6-6-6--| x2
A|--------------------------------------------------------------------------------------------|
D|--------------------------------------------------------------------------------------------|


And that’s about it…. feel free to submit any corrections for the tab, please rate 
it, and all comments are welcome :)
oh!! and amp setting are wellcome too xD
Suggest correction
Give kudos to tab author, rate the tab!
1 2 3 4 5
comments
print report bad tab
guest
You may want to rate the tab now too:
select rating
Wanna post a correction for this tab? Suggest correction