Oops, an error
Loading. Please wait.

Pages Bass Tab

version 1
version 1

Whole song

Interactive

283 views 1 this week
no commentswrite comment
1 2 3 4 5
excellent!
x 1
add to favorites
launch autoscroll
font size
0
reset
guitar tuner
Tab Pro tools
  • play this tab
  • loop segment
  • change instrument
  • show fretboard
  • metronome
Autoscroll
slow
fast
+/-
esc
set tempo
stop
Contributor
Hey, I didnt see a tab up for this song so I thought I'd put it up. Hope you guys enjoy 
it, it took me hours to tab because of the verse. You could barely hear it but I managed 
to bass the boost up and get a good sound of it so here it is.

Tuning: C# G# C# F#


Intro
F#|-----------------------------------------------------------------|
C#|-----------------------------------------------------------------|
G#|-----------------------------------------------------------------|
C#|----4444-----44----444---444----7777-----77--7---7--7--7777------|

F#|------------------------------------------------------------------|
C#|------------------------------------------------------------------|
G#|------------------------------------------------------------------|
C#|----2222-----22----222---222----0000-----00--0---0--0--0000-------|


Verse
F#|--------------------------------------------------|
C#|--------------------------------------------------|
G#|------------------------4(x8)---------------------|
C#|------4(x16)-----2(x8)-------------0(x32)---------|   x2


Pre-Chorus
F#|-------------------------------------------|
C#|-------------------------------------------|
G#|-------------------------------------------|
C#|--0(x16)-----2(x16)-----0(x16)----2(x13)---|


Chorus
F#|-------------------------------|
C#|-------------------------------|
G#|-------------------------------|
C#|----4(x16)------7(x16)---------|

F#|---------------------------------------------------------------------------------|
C#|---------------------------------------------------------------------------------|
G#|---------------------------------------------------------------------------------|
C#|----2222-----22----222---222----0000-----00--0---0--0--0000----4~~~~~~~~ 44------|

Verse 2
F#|-----------------------------------------------|
C#|-----------------------------------------------|
G#|------------------------4(x8)------------------|
C#|------4(x16)-----2(x8)-------------0(x32)------|

F#|---------------------------------------------------------------|
C#|---------------------------------------------------------------|
G#|------------------------4(x8)----------------------------------|
C#|------4(x16)-----2(x8)-------------0(x24)----7(x3)--6(x3)--77--|


Pre-Chorus
F#|-------------------------------------------|
C#|-------------------------------------------|
G#|-------------------------------------------|
C#|--0(x16)-----2(x16)-----0(x16)----2(x13)---|


Chorus
F#|-------------------------------|
C#|-------------------------------|
G#|-------------------------------|
C#|----4(x16)------7(x16)---------|

F#|--------------------------------------------------------------------------|
C#|--------------------------------------------------------------------------|
G#|--------------------------------------------------------------------------|  x2
C#|----2222-----22----222---222----0000-----00--0---0--0--0000--0~~~---------|


Bridge

F#|---------------------------------------------------|
C#|---------------------------------------------------|
G#|---------------------------------------------------|
C#|-0~~~~~~~~---2~~~~~~~~~----0(x16)-----2(x16)-------|

F#|-------------------------------------------------|
C#|-------------------------------------------------|
G#|---------------4(x16)----5(x16)-----7(x16)-------|
C#|------4(x16)-------------------------------------|


F#|-----------------------------------------------------|
C#|-----------------------------------------------------|
G#|-----------------------------------------------------|
C#|------4(x16)-------7(x16-------0(x16)-----2(x13)-----|


Chorus
F#|-------------------------------|
C#|-------------------------------|
G#|-------------------------------|
C#|----4(x16)------7(x16)---------|

F#|-------------------------------------------------------------------|
C#|-------------------------------------------------------------------|
G#|-------------------------------------------------------------------|
C#|----2222-----22----222---222----0000-----00--0---0--0--0000--------|

F#|---------------------------------------|
C#|---------------------------------------|
G#|---------------------------------------|
C#|----2(x16)------0(x16)----0~~~~~~~-----|
comments
We did not receive enough feedback on this tab! Please rate:
print report bad tab
1 2 3 4 5
I want to post or [tab]
guest
You may want to rate the tab now too:
select rating
Please do not post tabs as comments. Select "correction" instead!