Oops, an error
Loading. Please wait.

Pages Tab

version 2
version 2

Whole song

Interactive

828 views 1 this week
no commentswrite comment
1 2 3 4 5
please rate
add to favorites
launch autoscroll
font size
0
reset
how to read this tab
guitar tuner
Tab Pro tools
  • play this tab
  • loop segment
  • change instrument
  • show fretboard
  • metronome
×
Best way to learn
"Pages"
Autoscroll
slow
fast
+/-
esc
set tempo
stop
Contributor
Difficulty
Tuning
novice
C# G# C# F# A# D#
INTRO LEAD GUITAR (0:00-0:07)

D#|-16-16-16-17-17-17-------------------------------|
A#|-------------------17-17-------------------------|
F#|-------------------------------------------------|  X 3
C#|-------------------------------------------------|
G#|-------------------------------------------------|
C#|-------------------------------------------------|

(0:07-0:09)

D#|-16-16-16-17-17-17-------------------------------|
A#|-------------------17----------------------------|
F#|-------------------------------------------------|  X 1
C#|-------------------------------------------------|
G#|-------------------------------------------------|
C#|-------------------------------------------------|

(0:09-0:14)   ------------  Repeat until (0:20)

D#|-16-16-16-17-17-17-------|
A#|-------------------17-17-|
F#|-------------------------| x3 
C#|-------------------------|
G#|-------------------------|
C#|-------------------------|

D#|-14-14-14----------------|
A#|----------17-17-17-17----|
F#|-------------------------| x1
C#|-------------------------|
G#|-------------------------|
C#|-------------------------|




VERSE (0:21-0:32) 

D#|---------------------/17~~16~~~~~---------------------------|
A#|-17~~~~~~~~--14~~~~~~~~-----------17~~~~~~~~~~~14~~~~~~~~~17|
F#|------------------------------------------------------------| x2
C#|------------------------------------------------------------|
G#|------------------------------------------------------------|
C#|------------------------------------------------------------|

cant figure out (0:32-0:43) :S... if you know how it goes feel free 
to post it...thnx

0:44-0:54) 

D#|-------------------------------12-12-12-12-------------------------------------------|
A#|-------------------------------------------12-12----14-14-14-------------------------|
F#|-11-11-11-13-13-13-14-14-14----------------------------------14-14-14-13-13-13-13-13-|
C#|-------------------------------------------------------------------------------------|
G#|-------------------------------------------------------------------------------------|
C#|-------------------------------------------------------------------------------------|

D#|----------------------------12-12-12-12----------------------------------------------|
A#|-----------------------------------------12-12----14-14-14---------------------------|
F#|-11-11-11-13-13-13-14-14-14--------------------------------14-14-14-13-13-13-13-13^--|
C#|-------------------------------------------------------------------------------------|
G#|-------------------------------------------------------------------------------------|
C#|-------------------------------------------------------------------------------------|


D#|------------10p7-----------------------|
A#|-------8h10------10p8------8h10--------|
F#|--9h11----------------9h11-------------|
C#|---------------------------------------|
G#|---------------------------------------|
C#|---------------------------------------|


| /  slide up
| \  slide down
| h  hammer-on
| p  pull-off
| ~  vibrato
| +  harmonic
| x  Mute note
| ^  Sting bend
=============================================================================

ill try to figure out the rest....until..have fun
comments
We did not receive enough feedback on this tab! Please rate:
print report bad tab
1 2 3 4 5
I want to post or [tab]
guest
You may want to rate the tab now too:
select rating
Please do not post tabs as comments. Select "correction" instead!