Oops, an error
Loading. Please wait.

The Joyride Tab

version 1
version 1

Acoustic

Whole song

Interactive

855 views 1 this week
no commentswrite comment
1 2 3 4 5
please rate
add to favorites
launch autoscroll
font size
0
reset
how to read this tab
guitar tuner
Autoscroll
slow
fast
+/-
esc
set tempo
stop
Help us to improve Ultimate-Guitar.com Take our survey!
×
Contributor
Difficulty
Tuning
novice
C# G# C# F# A# D#
Artist: There For Tomorrow
Album: The Verge
Song: The Joyride
Version: Acoustic
Tuning: Drop C#
[Listen & watch the video for strumming and when to change chords]

http://www.youtube.com/watch?v=9I8KDvj1y7A  [The video that he plays this version of the tab.]


Intro 

d#|-------|
A#|-------|
F#|6--7--4|
C#|7--9--5| X4
G#|7--9--5|
C#|7--9--5| 

d#|-----------|
A#|------7-v7-|
F#|------7-v7-|
C#|7--9--5-5--| x3
G#|7--9--5-5--|
C#|7--9--5-5--|

d#|----|
A#|----|
F#|----|
C#|7--7|
G#|5--4|
C#|0---|

Verse

d#|-------------0|
A#|-------------0|
F#|-------------6|
C#|7--9--5------4|
G#|7--9--5-x8---5|
C#|7--9--5------0|
PM.........

Chorus

d#|-----------|
A#|------7----|
F#|------7----|
C#|7--9--5----| x3
G#|7--9--5----|
C#|7--9--5----|

d#|----|
A#|----|
F#|----|
C#|7--7|
G#|5--4|
C#|0---|

d#|-------------|
A#|-------------|
F#|-------------|
C#|7--9--5------|
G#|7--9--5-x4---|
C#|7--9--5------|
PM.........

Verse

d#|------------0|
A#|------------0|
F#|6--7--4-----6|
C#|7--9--5--x4-4|
G#|7--9--5-----5|
C#|7--9--5-----0|

Chorus

d#|-----------|
A#|------7----|
F#|------7----|
C#|7--9--5----| x3
G#|7--9--5----|
C#|7--9--5----|

d#|----|
A#|----|
F#|----|
C#|7--7|
G#|5--4|
C#|0---|

d#|-------|
A#|-------|
F#|6--7--4|
C#|7--9--5| x3
G#|7--9--5|
C#|7--9--5|

d#|----|
A#|----|
F#|----|
C#|7--7|
G#|5--4|
C#|0---|

Bridge

d#|----------------------------------------------------|
A#|----------------------------------------------------|
F#|-----6b7----4b5-4b5-4b5p0-------6p7----4b5-4b5-4b5p0|
C#|555-----55-----------------555------55--------------|
G#|555-----55-----------------555------55--------------|
C#|555-----55-----------------555------55--------------|

d#|----------------------------------------------------|
A#|----------------------------------------------------|
F#|-----6b7----4b5-4b5-4b5p0-------6p7----4b5-4b5-4b5p0|
C#|777-----77------------------777-----77--------------|
G#|555-----55------------------555-----55--------------|
C#|000-----00------------------000-----00--------------|

d#|----------------------------------------------------|
A#|----------------------------------------------------|
F#|-----6b7----4b5-4b5-4b5p0-------6p7----4b5-4b5-4b5p0|
C#|555-----55-----------------555------55--------------|
G#|555-----55-----------------555------55--------------|
C#|555-----55-----------------555------55--------------|

d#|-----------------------------------------------------------------|
A#|-----------------------------------------------------------------|
F#|----4------6-----6----4---4----4---4----4---4--------2-----2-----|
C#|--0---0-------0---------0--------0--------0--------0---0-----0---|
G#|5-------/7---------/5-------5---------5-------5--4-------4-----4-|
C#|-----------------------------------------------------------------|

d#|------------------------------------------------------------------------|
A#|------------------------------------------------------------------------|
F#|------0---------0------------6------7-----4------4---------2-----2-----0|
C#|----4---4----------4-------0------0-----0---0------0-----0---0-----0---4|
G#|-------------------------7------9-----5--------5-----5-4-------4-----4-x|
C#|3/5----------5--------5------------------------------------------------5|

Pre-Chorus

d#|-------|
A#|-------|
F#|6--7--4|    -6-                 |
C#|7--9--5| x4 -4- [palm mute this]|
G#|7--9--5|    -5-                 |
C#|7--9--5|    -0-                 |


Chorus

d#|-----------|
A#|------7----|
F#|------7----|
C#|7--9--5----| x3
G#|7--9--5----|
C#|7--9--5----|

d#|----|
A#|----|
F#|----|
C#|7--7|
G#|5--4|
C#|0---|

d#|-------|
A#|-------|
F#|6--7--4|
C#|7--9--5| x3
G#|7--9--5|
C#|7--9--5|

d#|----|
A#|----|
F#|----|
C#|7--7|
G#|5--4|
C#|0---|

end on 

-0-
-0-
-6-
-4-
-5-
-0-
comments
We did not receive enough feedback on this tab! Please rate:
print report bad tab
1 2 3 4 5
I want to post or [tab]
guest
You may want to rate the tab now too:
select rating
Please do not post tabs as comments. Select "correction" instead!