Oops, an error
Loading. Please wait.

The Joyride Tab

version 2
version 2

Whole song

Interactive

1,160 views 1 this week
1 commentread comment
1 2 3 4 5
3 more votes to show rating
add to favorites
launch autoscroll
font size
0
reset
how to read this tab
guitar tuner
Autoscroll
slow
fast
+/-
esc
set tempo
stop
Help us to improve Ultimate-Guitar.com Take our survey!
×
Author
Difficulty
Tuning
intermediate
C# G# C# F# A# D#
First Tab!
hope you guys like it, and hope i didnt make any mistakes.
the whole thing was tabbed out by ear.
Artist:There for Tomorrow
Album: The Verge
Song: The Joyride

Rhythm Guitar: Intro 
eb|-------------------|  |-------------------|  |--------------------|
Bb|-------------------|  |-----------7--7--7-|  |--------------------|
Gb|-------------------|  |-----------7--7--7-|  |-77777777-66666666--|
Db|-777-999-555555555-|X4|—777-999-555555555-|X3|-77777777-66666666--|X1
Ab|-777-999-555555555-|  |—777-999-555555555-|  |-55555555-44444444--|
Db|-777-999-555555555-|  |-777-999-555555555-|  |--------------------|

Verse 
eb|-------------------|  |----------|
Bb|-------------------|  |----------|
Gb|-------------------|  |-77777777-|
Db|-777-999-555555555-|  |-77777777-|X3
Ab|-777-999-555555555-|X7|-55555555-| 
Db|-777-999-555555555-|  |----------|

Chorus
eb|-------------------|  |------------------|
Bb|-------------------|  |------------------|
Gb|-------------------|  |-77777777-66666666|
Db|-777-999-555555555-|X3|-77777777-66666666|X1
Ab|-777-999-555555555-|  |-55555555-44444444|
Db|-777-999-555555555-|  |------------------|

Verse
Chorus

Bridge                               
eb|------------------------|
Bb|------------------------|
Gb|----5h7p5---------------|
Db|------------4h5p4h5p4p0-|
Ab|-555-----555------------|
Db|------------------------|
So sorry i couldn't quite figure
out the second part of the bridge. :/

Verse

Pre-Chorus
eb|----------|
Bb|----------|
Gb|-77777777-|
Db|-77777777-|X7
Ab|-55555555-|
Db|----------|

Chorus

Outro
eb|---|
Bb|---|
Gb|-7-|
Db|-7-|X4
Ab|-5-|
Db|---|
Suggest correction
Give kudos to tab author, rate the tab!
1 2 3 4 5
comments
print report bad tab
1 comment total.
0 reply
ACESORSPADES 10 Sep 14, 2013 11:49 PM

eb|------------------------|
Bb|------------------------|
Gb|----6b7b6---------------|
Db|-555-----5554b5b4b5b4p0-|x2
Ab|-555-----555------------|
Db|-555-----555------------|

eb|-------------------------|
Bb|-------------------------|
Gb|----6b7b6----------------|
Db|-000-----000-4b5b4b5b4p0-|x2
Ab|-000-----000-------------|
Db|-000-----000-------------|

eb|-------------------------------------------------|
Bb|-------------------------------------------------|
Gb|----6b7b6-------------------6b7b6----------------|
Db|-555-----555-4b5b4b5b4p0-555------555-4b5b4b5b4-0|x1
Ab|-555-----555-------------555------555-----------0|
Db|-555-----555-------------555------555-----------0|

guest
You may want to rate the tab now too:
select rating
Wanna post a correction for this tab? Suggest correction