Oops, an error
Loading. Please wait.

The World Calling Tab

version 1
version 1

Whole song

Interactive

5,257 views 3 this week
1 commentread comment
1 2 3 4 5
2 more votes to show rating
add to favorites
launch autoscroll
font size
0
reset
how to read this tab
guitar tuner
Autoscroll
slow
fast
+/-
esc
set tempo
stop
Help us to improve Ultimate-Guitar.com Take our survey!
×
Author
The World Calling - By There For Tomorrow     Tabbed by serandude14

Tuning: Drop D

Intro GTR 1
E|------------------------------------------------------------|
B|------------------------------------------------------------|
G|------------------------------------------------------------|
D|-4-----2-----7-----0-----4-----2------0-----2-----0-----11x-|
A|-4-x8--2-x8--7-x8--0-x3--4-x3--2-x2---0-x8--2-x8--0-x8--11x-|
D|-4-----2-----7-----0-----4-----2------0-----2-----0-----11x-|

Intro GTR 2
         Part 1
E|--------------------|----|---------------------|
B|--------------------|----|----------------10p9-|
G|-9-11---------------|----|-9h11-0-11s13-0------|
D|------0-9-11-0-9-11-|-x3-|---------------------|
A|--------------------|----|---------------------|
D|--------------------|----|---------------------|
Repeat, but part 1x3 and end with a 9fret on the Bstring

Verse
(It's gonna get harder from here)
E|-------------------------------------------------|
B|-------------------------------------------------|
G|-------------------------------------------------|
D|-4-----2-----7-----0------0-----2-----0------2---| 
A|-4-x8--2-x8--7-x8--0-x8---0-x8--2-x8--0-x12--2x4-|
D|-4-----2-----7-----0------0-----2-----0------2---|
  ................................................
(Tenth caller on the radio)
E|-------------------------------------------------------|
B|-------------------------------------------------------|
G|-------------------------------------------------------|
D|-4-----2-----7-----0------0-----2-----0-----4-----2----| 
A|-4-x8--2-x8--7-x8--0-x8---0-x8--2-x8--0-x8--4-x4--2-x4-|
D|-4-----2-----7-----0------0-----2-----0-----4-----2----|
  .....................................................
(Don't make it all so far)
Gtr 2
E|--------------------------------------------------|
B|--------------------------------------------------|
G|--------------------------------------------------|
D|-4-----2-----7-----0------0-----2-----0-----11----| 
A|-4-x8--2-x8--7-x8--0-x8---0-x8--2-x8--0-x8--11-x8-|
D|-4-----2-----7-----0------0-----2-----0-----11----|
  ..........................................
Gtr 1
E|------------------------------------------------------------------------|
B|------------------------------------------------------------------------|
G|---------------------------------13----13-------------------------------|
D|-11-X8--9-X16--------11-11-12-12----11----11--11-x8--9-x8--11-x8--13-x8-|
A|-9------7------12H14--------------------------9------7-----9------11----|
D|------------------------------------------------------------------------|
   ..     .               ..    ..    ..    ..                 
Chorus 
E|----------------------------------------------------------|
B|----------------------------------------------------------|
G|----------------------------------------------------------|
D|-4-----6-----7-----2-----9-----7------0-----2-----11------| x2
A|-4-X8--6-X4--7-x4--2-x8--9-x4--7-x4---0-x8--2-x8--11-x16--|
D|-4-----6-----7-----2-----9-----7------0-----2-----11------|

Chorus 2nd time Gtr 2
E|------------|----|-------------|
B|------------|----|-------------|
G|-9-S-11--x6-|----|-6-x4--11-x4-|
D|-x---x------|-x3-|-x-----x-----| Whole thing x2
A|-7-S-9------|----|-4-----9-----|
D|------------|----|-------------|

Post-Verse
E|----------------------------------------------------------------------|
B|----------------------------------------------------------------------|
G|----------------------------------------------------------------------|
D|-4---2-2-2-2-2---7---0-0-0-0-0----0---2-2-2-2-2---0---11-11-11-11-11--| 
A|-4---2-2-2-2-2---7---0-0-0-0-0----0---2-2-2-2-2---0---11-11-11-11-11--| 
D|-4---2-2-2-2-2---7---0-0-0-0-0----0---2-2-2-2-2---0---11-11-11-11-11--|
Figure the strumming pattern yrself (Every pause change chords

Verse 2
(Hold on to tight)
E|-------------------------------------------------|
B|-------------------------------------------------|
G|-------------------------------------------------|
D|-4-----2-----7-----0------0-----2-----0------2---| 
A|-4-x8--2-x8--7-x8--0-x8---0-x8--2-x8--0-x12--2x4-|
D|-4-----2-----7-----0------0-----2-----0------2---|
  ................................................
(Calling on the telephone)
E|-----------------------------------------------------------|
B|-----------------------------------------------------------|
G|-----------------------------------------------------------|
D|-4--2-2-2-2-2--7--0-0-0-0-0---0-----2-----0-----4-----2----|
A|-4--2-2-2-2-2--7--0-0-0-0-0---0-x8--2-x8--0-x8--4-x4--2-x4-|
D|-4--2-2-2-2-2--7--0-0-0-0-0---0-----2-----0-----4-----2----|
                               ...........................
(We're so damaged by the sunlight)
E|-------------------------------------|
B|-------------------------------------|
G|-------------------------------------|
D|-4x--2x--7x--0x--0x--2x--0-----11----| (Each XXX notes, play 4 times)
A|-4x--2x--7x--0x--0x--2x--0-x8--11-x8-|
D|-4x--2x--7x--0x--0x--2x--0-----11----|
                           .....  

||CHORUS||x2

Bridge
Gtr 1
E|-------------------|
B|-------------------|
G|-------------------|
D|--0-0-0-2-4-4-6-7--|
A|--0-0-0-2-4-4-6-7--| X2
D|--0-0-0-2-4-4-6-7--|

Gtr 2
E|-14----14----14----16----17----17----17----16-|    |-14-| 
B|----14----14----14----14----14----14----14----|    |----|
G|----------------------------------------------|    |----|
D|----------------------------------------------|    |----|
A|----------------------------------------------| x2 |----| 
D|----------------------------------------------|    |----|
                                                      End
Stripped down verse
(It's gonna get harder)
E|----------------------------|
B|----------------------------|
G|----------------------------|
D|-4--2--7--0--4-2--0--2--11--|
A|-4--2--7--0--4-2--0--2--11--|
D|-4--2--7--0--4-2--0--2--11--|

Intro with Variation Gtr 1
E|-------------------------------------------------------------|---|
B|-------------------------------------------------------------|---|
G|-------------------------------------------------------------|---|
D|-4-----2-----7-----0-----4-----2------0-----2-----0-----2----|-4-|
A|-4-x8--2-x8--7-x8--0-x3--4-x3--2-x2---0-x8--2-x8--0-x8--2-x8-|-4-|
D|-4-----2-----7-----0-----4-----2------0-----2-----0-----2----|-4-|
                                                              Let Ring
Intro With Variation Gtr 2
E|--------------------|----|---------------------|
B|--------------------|----|----------------10p9-|
G|-9-11---------------|----|-9h11-0-11s13-0------| 
D|------0-9-11-0-9-11-|-x3-|---------------------|  Whole thing x2
A|--------------------|----|---------------------|
D|--------------------|----|---------------------|

||EMPTY||

||CHORUS|| x2

||Bridge|| x2

End (Let Ring)
E|---|
B|---|
G|---|
D|-4-|
A|-4-|
D|-4-|
Suggest correction
Give kudos to tab author, rate the tab!
1 2 3 4 5
comments
print report bad tab
1 comment total.
0 reply
Pablotheunicorn 10 Nov 30, 2010 06:50 AM

The chorus is slightly wrong,
They play this:

D|-4-----6-----7-----2-----7-----9------0-----2-----11------
A|-4-X8--6-X4--7-x4--2-x8--7-x4--9-x4---0-x8--2-x8--11-x16--
D|-4-----6-----7-----2-----7-----9------0-----2-----11------

And alot of things on this tab don't sound right to me,
But I can't say for sure if it's just me because i'm much too tired/lazy to try and figure it out

Aside from all that good job

guest
You may want to rate the tab now too:
select rating
Wanna post a correction for this tab? Suggest correction