Oops, an error
Loading. Please wait.

Waiting Tab

version 2
version 2

Intro

Whole song

10,530 views 24 this week
4 commentsread comments
1 2 3 4 5
excellent!
x 8
add to favorites
launch autoscroll
font size
0
reset
how to read this tab
guitar tuner
Tab Pro tools
  • play this tab
  • loop segment
  • change instrument
  • show fretboard
  • metronome
Autoscroll
slow
fast
+/-
esc
set tempo
stop
Difficulty
Tuning
novice
D A D G B E
Tabbed by: prepekiddo1010@aim.com
Email:

Tuning:drop D             GUITAR ONE!!!!!!

 INTRO!!    (0:01)-(0:18)
e|--------------------------------------------------------------------------|
B|--------------------------------------------------------------------------|
G|--------------------------------------------------------------------------|
D|--8--9----8--9---------- 8--9------8--9----11-11--11----------------------|
A|-------9--------9 9 9 9--------9-----------9---9---9----------------------|
E|--------------------------------------------------------------------------|

e|--------------------------------------------------------------------------|
B|--------------------------------------------------------------------------|
G|-------------------------------------------11--9-8h9p8--------------------|
D|--8-9-----8--9-----------8--9------8-9------------------------------------|
A|-------9--------9 9 9 9--------9------------------------------------------|
E|--------------------------------------------------------------------------|

e|--------------------------------------------------------------------------|
B|---------------------------------------------------------* let it*--------|
G|----------------------------------------------------------- ring----------|
D|--8--9----8--9---------- 8--9------8--9----11-11--11------6~~~-----2------|
A|-------9--------9 9 9 9--------9-----------9---9---9------6~~~-----2------|
E|----------------------------------------------------------6~~~-----2------|
             (0:29)
e|--------------------------------------------------------------------------|
B|--------------------------------------------------------------------------|
G|--------------------------------------------------------------------------|
D|------------6---------2----------4----------44---44-----------------------|
A|------------6-x 32----2--x16-----4 x 12-----44---44-----------------------|
E|------------6---------2----------4----------44---44-----------------------|
             ********PALM MUTE!!*********

      (0:41)    " WHAT ARE WE WAITING FOR"
e|--------------------------------------------------------------------------|
B|--------------------------------------------------------------------------|
G|--------------------------------------------------------------------------|
D|--2---------4--------6-------9--------8-----------------------------------|
A|--2-x-8-----4-x-8----6-x 8---9--x 4---8-----------------------------------|
E|--2---------4--------6-------9--------8-----------------------------------|

     (0:52)  " slowly but surely"
e|---------------------------------------------------------------------------|
B|---------------------------------------------------------------------------|
G|---------------------------------------------------------------------------|
D|---6--------9--------2-------4--------6-------1------2-------4--------6----|
A|---6-x 8----9-x 8----2-x 8---4--x 8---6-x 8---1-x 8--2-x 8---4-x 8----6----|
E|---6--------9--------2-------4--------6-------1------2-------4--------6----|

            (1:15)
e|--------------------------------------------------------------------------|
B|--------------------------------------------------------------------------|
G|--------------------------------------------------------------------------|
D|--8-9----8--9----11-11-11-------6-----------------------------------------|
A|------9----------9--9--9--------6-----------------------------------------|
E|--------------------------------6-----------------------------------------|
                (1:18)
e|--------------------------------------------------------------------------|
B|--------------------------------------------------------------------------|
G|--------------------------------------------------------------------------|
D|------------6---------2----------4----------44---44-----------------------|
A|------------6-x 32----2--x16-----4 x 12-----44---44-----------------------|
E|------------6---------2----------4----------44---44-----------------------|
             ********PALM MUTE!!*********

B|--------------------------------------------------------------------------|
G|--------------------------------------------------------------------------|
D|------------6---------2----------4---------4------------------------------|
A|------------6-x 32----2--x16-----4 x 12----4-x 8 **pull off slowly**------|
E|------------6---------2----------4---------4------------------------------|
             ********PALM MUTE!!*********

      (1:40)    " WHAT ARE WE WAITING FOR"
e|--------------------------------------------------------------------------|
B|--------------------------------------------------------------------------|
G|--------------------------------------------------------------------------|
D|--2---------4--------6-------9--------8-----------------------------------|
A|--2-x-8-----4-x-8----6-x 8---9--x 4---8-----------------------------------|
E|--2---------4--------6-------9--------8-----------------------------------|

  (1:51)  " slowly but surely"
e|---------------------------------------------------------------------------|
B|---------------------------------------------------------------------------|
G|---------------------------------------------------------------------------|
D|---6--------9--------2-------4--------6-------1------2-------4--------6----|
A|---6-x 8----9-x 8----2-x 8---4--x 8---6-x 8---1-x 8--2-x 8---4-x 8----6----|
E|---6--------9--------2-------4--------6-------1------2-------4--------6----|


  (2;14)
B|---------------------------------------------------------------------------|
G|---------------------------------------------------------------------------|
D|--2-------4------6-------9---------11--------------------------------------|
A|--2-x-8---4-x-8--6-x-8---9 x 4-----11--x 4---------------------------------|
E]--2-------4------6-------9---------11--------------------------------------|

B|--------------------------------------------------------------------------|
G|----------------------------------------------********FADE OUT********----|
D|--2-------4------6-------9---------8---------2~~~~~~~~--------------------|
A|--2-x-8---4-x-8--6-x-8---9 x 4-----8--x 4----2~~~~~~~~--------------------|
E]--2-------4------6-------9---------8---------2~~~~~~~~--------------------|

        (2:59)  " what are we waiting for"
B|---------------------------------------------------------------------------|
G|---------------------------------------------------------------------------|
D|-2------4------6-------9----**pull off slowly**----------------------------|
A|-2 x 8--4-x-8--6-x--8--9x 8------------------------------------------------|
E|-2------4------6-------9---------------------------------------------------|
   ********pulm mute******

   (3:10)
B|--------------------------------------------------------\--------|
G|-----------------------------------------------------------------|  \
D|--2-------4------6-------9---------11-------------------   ] X 2-|
A|--2-x-8---4-x-8--6-x-8---9 x 4-----11--x 4-----------------------|  /
E]--2-------4------6-------9---------11----------------------------|


e|--------------------------------------------------------------------------|
B|--------------------------------------------------------------------------|
G|--------------------------------------------------------------------------|
D|--2~~~~~~~~~~~~~~---------------------------------------------------------|
A|--2~~~~~~~~~~~~~~--******FADE OUT TILL END*********-----------------------|
E|--2~~~~~~~~~~~~~~---------------------------------------------------------|


                       GUITAR TWO!!!

    INTRO!!  (0:01) - (0:19)
e|---------------------------------------------------------------------------|
B|---------------------------------------------------------------------------|
G|---------------------------------------------------------------------------|
D|--66----6~~~-------6---------2---------4-----------------------------------|
A|--66----6~~~-------6-x 16----2-x 8-----4-x 8-------------------------------|
E|--66----6~~--------6---------2---------4-----------------------------------|

e|-----------------------------------\---------|
B|---------------------------------------------|  \
G|-----------------------------------   }  x 2-|
D|--6-----2-----4-------44---44----------------|   /
A|--6x32--2-X8--4x8-----44---44----------------|  /
E|--6-----2-----4-------44---44----------------|
****PAML MUTED***

     (0:41)  "what are we waiting for"
e|-------14--------------------------------\--------|
B|-11-12----12-11-12--14--12------------------------|  \
G|----------------------------------------    } x 4-|
D|--------------------------------------------------|   /
A|--------------------------------------------------|  /
E|--------------------------------------------------|

e|-------------------14p-11-12p-11------------------14p-11-12p-11------------|
B|--14p 11-12p-11--------------------14p-11-12p-11---------------------------|
G|---------------------------------------------------------------------------|
D|---------------------------------------------------------------------------|
A|---------------------------------------------------------------------------|
E|---------------------------------------------------------------------------|

e|-------------------14p-11-12p-11-------------------------------------------|
B|--14p 11-12p-11-------------------14---------------------------------------|
G|---------------------------------------------------------------------------|
D|---------------------------------------------------------------------------|
A|---------------------------------------------------------------------------|
E|---------------------------------------------------------------------------|

       (0:52)  " slowly but surely"
e|--------------------------------------|
B|--------------------------------------|
G|--------------------------------------|
D|---6--------9--------2-------4--------|
A|---6-x 8----9-x 8----2-x 8---4--x 8---|
E|---6--------9--------2-------4--------|

  (1:04)  " to know that later"
e|-------14--------------------------------\--------|
B|-11-12----12-11-12--14--12------------------------|  \
G|----------------------------------------    } x 4-|
D|--------------------------------------------------|   /
A|--------------------------------------------------|  /
E|--------------------------------------------------|

e|-------------------14p-11-12p-11------------------14p-11-12p-11------------|
B|--14p 11-12p-11--------------------14p-11-12p-11---------------------------|
G|---------------------------------------------------------------------------|
D|---------------------------------------------------------------------------|
A|---------------------------------------------------------------------------|
E|---------------------------------------------------------------------------|

e|-------------------14p-11-12p-11-------------------------------------------|
B|--14p 11-12p-11-------------------12---------------------------------------|
G|---------------------------------------------------------------------------|
D|---------------------------------------------------------------------------|
A|---------------------------------------------------------------------------|
E|---------------------------------------------------------------------------|


SORRY I CANT PUT THE REAT ON...BUT ITS ALL THE SAME JUST RTY TO FUGURE IT OUT YOUR 
comment it!!
comments
print report bad tab
4 comments total. Showing first comments.
0 reply
Obina wrote on October 19 2007, 01:35 pm

perfect!

0 reply
Obina wrote on October 19 2007, 01:36 pm

can you tab pages and addiction and her name?

0 reply
Rampy wrote on October 21 2008, 11:31 am

It's an amazing tab, but when you put strummings like x8 or x4 It's usually twice that.

like if you put x8 it's strummed 16 times and x4 it's strummed 8 times.

And if you could put the acoustic chords in the fade out that would be amazing.

I want to post or [tab]
guest
You may want to rate the tab now too:
select rating
Please do not post tabs as comments. Select "correction" instead!