Oops, an error
Loading. Please wait.

Aurora Tab

189 views 1 this week
no commentswrite comment
1 2 3 4 5
please rate
add to favorites
launch autoscroll
font size
0
reset
how to read this tab
guitar tuner
Autoscroll
slow
fast
+/-
esc
set tempo
stop
Help us to improve Ultimate-Guitar.com Take our survey!
×
Difficulty
Tuning
novice
D A D G B E
-------------------------Aurora-THEREFORE I AM---------------------------------------
Tabbed by: JR
Email: subsonicthehedgehog@yahoo.com

Tuning: Drop D (DADGBE)

Note: Almost all other tabs for this song are 100% correct for the Intro and Outro. I 
have added all the other parts to almost 100% completion.

Guitar 1
E|--------------------------------------------------|
B|--------------------------------------------------|
G|-----------9--------------------------------------|
D|---11-----------(x2)------------------------------|
A|-9-----9------------------------------------------|
D|--------------------------------------------------|

Guitar 1 (cont'd-2nd Pattern)
E|-------------------------------------|
B|-------------------0-----------------|(on 2nd time)
G|------------9------------------------|
D|-----11-------(x2)-------------------|
A|---------9---------------------------|
D|---0---------------------------------|

Guitar 2 has a solo-type augmentation of the Guitar 1 riff after the 2nd playing of the intro.

Guitar 2
E|--------------------------------------------------|
B|--------------------------------------------------|
G|-11------/-14------\-11------/-14-----------------|
D|-11-(x12)/-14-(x12)\-11-(x12)/-14-(x12)-----------|
A|-9-------/-12------\-9-------/-12-----------------|
D|--------------------------------------------------|

Guitar 2 (cont'd)
             Triplet       Triplet
E|--------------------------------------------------|
B|--------------------------------------------------|
G|-11-----\-9------/-11------\-9-----/-11-----------|
D|-11-(x9)\-9-(x2)-/-11-(x9)-\-9-(x2)/-11-(x13)-----|
A|-9------\-7------/-9-------\-7-----/-9------------|
D|--------------------------------------------------|

Guitar 2 (cont'd)
E|-----------------------------------------------|
B|-----------------------------------------------|
G|-/--14-----------------------------------------|
D|-/--14-(x12)-----------------------------------|
A|-/--12-----------------------------------------|
D|-----------------------------------------------|

Guitar 1+2 for first 2 times (see recording for exact pattern/repetitions)
E|-------------------------|
B|-------------------------|
G|-------------------------|
D|---44444------00000000---|
A|---44444------00000000---|
D|---44444------00000000---|

Guitar 2 (see recording to check exact muting pattern/note lengths)
E|------------------------------|
B|---------5-5---------5--------|
G|-----6-6---------6-6-----4----|
D|-4-4---------4-4--------------|
A|------------------------------|
D|------------------------------|

Gtr. 1+2
E|-------------------------|
B|-------------------------|
G|-------------------------|
D|-0~~----------00-0-------|
A|-0~~----------00-0-------|
D|-0~~----------00-0-------|
                           .
                          pm
Suggest correction new What's this?
You can suggest a correction to this tab. Community and Mods will review your correction and vote to approve or reject it.
comments
We did not receive enough feedback on this tab! Please rate:
print report bad tab
1 2 3 4 5
guest
You may want to rate the tab now too:
select rating
Please do not post tabs as comments. Select "correction" instead!