Oops, an error
Loading. Please wait.

Seven Secrets Of The Sphinx Bass

version 1
version 1

Whole song

Interactive

by Therion
232 views 3 this week
no commentswrite comment
1 2 3 4 5
3 more votes to show rating
add to favorites
launch autoscroll
font size
0
reset
guitar tuner
×
Best way to learn
"Seven Secrets Of The Sphinx"
Autoscroll
slow
fast
+/-
esc
set tempo
stop
Tuning
C# F# B E
Band: Therion
Song: Seven secrets of the sphinx
Album: Deggial
Tab by: megatherion (nedved)

   Intro/verse
   Riff1
E |------------------------|
B |------------------------|
F#|------------------------|
C#|-3-3-3-3-4-3-1-3--------| repeat 8 times

   riff2
E |------------------------|
B |------------------------|
F#|-3-3-3-3-4-3-1-3--------|
C#|------------------------| repeat 4 times then the first riff 4 times

Pre chorus

E |-------------------------------------|
B |-------------------------15-14-13-12-|
F#|-13-13-13-13-13-13-13-13-------------|
C#|-------------------------------------|

E |-------------------------------------|
B |-------------------------15-14-13-12-|
F#|-12-12-12-12-12-12-12-12-------------|
C#|-------------------------------------|

Chorus/no bass

Ending

E |-----------------------------------|
B |--10-10----------------------------|
F#|--------7-7-7-4-4-4-3-3-3----------|
C#|-----------------------------------|

E |-----------------------------------|
B |--10-10----------------------------|
F#|--------7-7-7-3-5-3-5--------------|
C#|-----------------------------------|

And thats all!! ( vivan los barba negras)

Estructure

Riff1
Riff2
Riff1
Pre chorus
Chorus
Pre chorus
Chorus
Riff1
Riff2
Riff1
Pre Chorus
Chorus
Pre Chorus
Chorus
Ending
Suggest correction
Give kudos to tab author, rate the tab!
1 2 3 4 5
comments
print report bad tab
guest
You may want to rate the tab now too:
select rating
Wanna post a correction for this tab? Suggest correction