Oops, an error
Loading. Please wait.

Son Of The Sun Bass Tab

version 1
version 1

Whole song

  • 2.5. Missing effects legend: The legend should be ... Show more

Interactive

10 views 1 this week
no commentswrite comment
1 2 3 4 5
3 more votes to show rating
add to favorites
launch autoscroll
font size
0
reset
guitar tuner
Autoscroll
slow
fast
+/-
esc
set tempo
stop
Help us to improve Ultimate-Guitar.com Take our survey!
×
Author
Difficulty
Tuning
novice
C# G# E B F# C#
About this tab version
2.5. Missing effects legend: The legend should be placed after the tab and contain only the effects that were used in the tab. Was this info helpful? Yes No
Title: Son Of The Sun
Artist: Therion
Album: Sirius B
Bassist: Johan Niemann
Composer: Kristian Niemann
Tabbed By: FLBatista
Tunning: 2,5 step's down on 5 strings (G#,C#,F#,B,E)


MAIN RIFF (x2):

E |-----------------|-----------------|-----------------|-----------------|
B |-----------------|-----------------|-----------------|-----------------|
F#|-----------------|-2-2-2-2-2-2-2-2-|-3-3-3-3-3-3-3-3-|---------0-0-0-0-|
C#|-0-0-0-0-0-0-0-0-|-----------------|-----------------|-3-3-3-3---------|
G#|-----------------|-----------------|-----------------|-----------------|

E |-----------------|-----------------|-----------------|-----------------|
B |-----------------|-----------------|-----------------|---------0-0-0-0-|
F#|-----------------|-----------------|-0-0-0-0-0-0-0-0-|-3-3-3-3---------|
C#|-0-0-0-0-0-0-0-0-|-3-3-3-3-3-3-3-3-|-----------------|-----------------|
G#|-----------------|-----------------|-----------------|-----------------|


VERSE (In ancients days...):

E |-----------------|-----------------|-----------------|-----------------|
B |-----------------|-----------------|-----------------|-----------------|
F#|-7-7-7-7-7-7-7-7-|-7-7-7-7-7-7-7-7-|-----------------|---------3-3-3-3-|
C#|-----------------|-----------------|-3-3-3-3-3-3-3-3-|-3-3-3-3---------|
G#|-----------------|-----------------|-----------------|-----------------|

E |-----------------|-----------------|-----------------|-----------------|
B |-----------------|-----------------|-----------------|-----------------|
F#|-7-7-7-7-7-7-7-7-|-7-7-7-7-7-7-7-7-|-----------------|-2-2-2-2-2-2-2-2-|
C#|-----------------|-----------------|-3-3-3-3-3-3-3-3-|-----------------|
G#|-----------------|-----------------|-----------------|-----------------|


VERSE 2 (The sun above Amon...):

E |-----------------|-----------------|-----------------|-----------------|
B |-----------------|-----------------|-----------------|-----------------|
F#|-----------------|-----------------|-----------------|---------3-3-3-3-|
C#|-0-0-0-0-0-0-0-0-|-0-0-0-0-0-0-0-0-|-3-3-3-3-3-3-3-3-|-3-3-3-3---------|
G#|-----------------|-----------------|-----------------|-----------------|

E |-----------------|-----------------|-----------------|-----------------|
B |-----------------|-----------------|-----------------|-----------------|
F#|-----------------|-----------------|-----------------|---------2-2-2-2-|
C#|-0-0-0-0-0-0-0-0-|-0-0-0-0-0-0-0-0-|-3-3-3-3-3-3-3-3-|-3-3-3-3---------|
G#|-----------------|-----------------|-----------------|-----------------|


PRE-CHORUS (The gods would punish...):

E |-----------------|-----------------|-----------------|-----------------|
B |-----------------|-----------------|-----------------|-----------------|
F#|-3-3-3-3-3-3-3-3-|-3-3-3-3-3-3-3-3-|-----------------|-5-5-5-5-5-5-5-5-|
C#|-----------------|-----------------|-3-3-3-3-3-3-3-3-|-----------------|
G#|-----------------|-----------------|-----------------|-----------------|

E |-----------------|-----------------|-----------------|-----------------|
B |-----------------|-----------------|-----------------|-----------------|
F#|-3-3-3-3-3-3-3-3-|-3-3-3-3-3-3-3-3-|-7-7-7-7-7-7-7-7-|-7-7-7-7-----0-2-|
C#|-----------------|-----------------|-----------------|---------3-3-----|
G#|-----------------|-----------------|-----------------|-----------------|

E |-----------------|-----------------|-----------------|-----------------|
B |-----------------|-----------------|-----------------|-----------------|
F#|-3-3-3-3-3-3-3-3-|-3-3-3-3-3-3-3-3-|-----------------|-5-5-5-5-5-5-5-5-|
C#|-----------------|-----------------|-3-3-3-3-3-3-3-3-|-----------------|
G#|-----------------|-----------------|-----------------|-----------------|

E |-----------------|-----------------|-----------------|-----------------|
B |-----------------|-----------------|-----------------|-----------------|
F#|-3-3-3-3-3-3-3-3-|-5-5-5-5-5-5-5-5-|-----------------|-----------------|
C#|-----------------|-----------------|-----------------|-----------------|
G#|-----------------|-----------------|-3h5-5-6p5-5-6p5-|-5-8p5-5-6p5-5-5-|


CHORUS (Son of the Sun...):

E |-----------------|-----------------|-----------------|-----------------|
B |-----------------|-----------------|-----------------|-----------------|
F#|-----------------|-----------------|-6-6-6-6-6-6-6-6-|---------3-3-3-3-|
C#|-3-3-3-3-3-3-3-3-|-6-6-6-6-6-6-6-6-|-----------------|-6-6-6-6---------|
G#|-----------------|-----------------|-----------------|-----------------|

E |-----------------|-----------------|-----------------|-----------------|
B |-----------------|-----------------|-----------------|-----------------|
F#|-----------------|-----------------|-8-8-8-8-8-8-8-8-|-6-6-6-6-6-----5-|
C#|-3-3-3-3-3-3-3-3-|-6-6-6-6-6-6-6-6-|-----------------|-----------6-8---|
G#|-----------------|-----------------|-----------------|-----------------|

E |-----------------|-----------------|-----------------|-----------------|
B |-----------------|-----------------|-----------------|-----------------|
F#|-----------------|---------------5-|-6-6-6-6-6-6-6-6-|-----------------|
C#|-3-3-3-3-3-3-3-3-|-6-6-6-6-6-6-8---|-----------------|-6-6-6-6-8-8-6-5-|
G#|-----------------|-----------------|-----------------|-----------------|

E |-----------------|-----------------|-----------------|-----------------|
B |-----------------|-----------------|-----------------|-----------------|
F#|-----------------|-----------------|-8-8-8-8-8-8-8-8-|-6-6-6-6-6-6-6-6-|
C#|-3-3-3-3-3-3-3-3-|-6-6-6-6-6-6-6-6-|-----------------|-----------------|
G#|-----------------|-----------------|-----------------|-----------------|


MAIN RIFF:

E |-----------------|-----------------|-----------------|-----------------|
B |-----------------|-----------------|-----------------|-----------------|
F#|-----------------|-2-2-2-2-2-2-2-2-|-3-3-3-3-3-3-3-3-|---------0-0-0-0-|
C#|-0-0-0-0-0-0-0-0-|-----------------|-----------------|-3-3-3-3---------|
G#|-----------------|-----------------|-----------------|-----------------|

E |-----------------|-----------------|-----------------|-----------------|
B |-----------------|-----------------|-----------------|---------0-0-0-0-|
F#|-----------------|-----------------|-0-0-0-0-0-0-0-0-|-3-3-3-3---------|
C#|-0-0-0-0-0-0-0-0-|-3-3-3-3-3-3-3-3-|-----------------|-----------------|
G#|-----------------|-----------------|-----------------|-----------------|


VERSE (The Sphinx burst into...):

E |-----------------|-----------------|-----------------|-----------------|
B |-----------------|-----------------|-----------------|-----------------|
F#|-7-7-7-7-7-7-7-7-|-7-7-7-7-7-7-7-7-|-----------------|---------3-3-3-3-|
C#|-----------------|-----------------|-3-3-3-3-3-3-3-3-|-3-3-3-3---------|
G#|-----------------|-----------------|-----------------|-----------------|

E |-----------------|-----------------|-----------------|-----------------|
B |-----------------|-----------------|-----------------|-----------------|
F#|-7-7-7-7-7-7-7-7-|-7-7-7-7-7-7-7-7-|-----------------|-2-2-2-2-2-2-2-2-|
C#|-----------------|-----------------|-3-3-3-3-3-3-3-3-|-----------------|
G#|-----------------|-----------------|-----------------|-----------------|


VERSE 2 (The precipice is close...):

E |-----------------|-----------------|-----------------|-----------------|
B |-----------------|-----------------|-----------------|-----------------|
F#|-----------------|-----------------|-----------------|---------3-3-3-3-|
C#|-0-0-0-0-0-0-0-0-|-0-0-0-0-0-0-0-0-|-3-3-3-3-3-3-3-3-|-3-3-3-3---------|
G#|-----------------|-----------------|-----------------|-----------------|

E |-----------------|-----------------|-----------------|-----------------|
B |-----------------|-----------------|-----------------|-----------------|
F#|-----------------|-----------------|-----------------|-------0-2-2-2-2-|
C#|-0-0-0-0-0-0-0-0-|-0-0-0-0-0-0-0-0-|-3-3-3-3-3-3-3-3-|-3-3-3-----------|
G#|-----------------|-----------------|-----------------|-----------------|


PRE-CHORUS (Visions of madness led...):

E |-----------------|-----------------|-----------------|-----------------|
B |-----------------|-----------------|-----------------|-----------------|
F#|-3-3-3-3-3-3-3-3-|-3-3-3-3-3-3-3-3-|-----------------|-5-5-5-5-5-5-5-5-|
C#|-----------------|-----------------|-3-3-3-3-3-3-3-3-|-----------------|
G#|-----------------|-----------------|-----------------|-----------------|

E |-----------------|-----------------|-----------------|-----------------|
B |-----------------|-----------------|-----------------|-----------------|
F#|-3-3-3-3-3-3-3-3-|-3-3-3-3-3-3-3-3-|-7-7-7-7-7-7-7-7-|-7-7-7-7-----0-2-|
C#|-----------------|-----------------|-----------------|---------3-3-----|
G#|-----------------|-----------------|-----------------|-----------------|

E |-----------------|-----------------|-----------------|-----------------|
B |-----------------|-----------------|-----------------|-----------------|
F#|-3-3-3-3-3-3-3-3-|-3-3-3-3-3-3-3-3-|-----------------|-5-5-5-5-5-5-5-5-|
C#|-----------------|-----------------|-3-3-3-3-3-3-3-3-|-----------------|
G#|-----------------|-----------------|-----------------|-----------------|

E |-----------------|-----------------|-----------------|
B |-----------------|-----------------|-----------------|
F#|-3-3-3-3-3-3-3-3-|-5-5-5-5-5-5-5-5-|-----------------|
C#|-----------------|-----------------|-----------------|
G#|-----------------|-----------------|-3h5-5-6p5-5-6p5-|


CHORUS (Son of the Sun...):

E |-----------------|-----------------|-----------------|-----------------|
B |-----------------|-----------------|-----------------|-----------------|
F#|-----------------|-----------------|-6-6-6-6-6-6-6-6-|---------3-3-3-3-|
C#|-3-3-3-3-3-3-3-3-|-6-6-6-6-6-6-6-6-|-----------------|-6-6-6-6---------|
G#|-----------------|-----------------|-----------------|-----------------|

E |-----------------|-----------------|-----------------|-----------------|
B |-----------------|-----------------|-----------------|-----------------|
F#|-----------------|-----------------|-8-8-8-8-8-8-8-8-|-6-6-6-6-6-----5-|
C#|-3-3-3-3-3-3-3-3-|-6-6-6-6-6-6-6-6-|-----------------|-----------6-8---|
G#|-----------------|-----------------|-----------------|-----------------|

E |-----------------|-----------------|-----------------|-----------------|
B |-----------------|-----------------|-----------------|-----------------|
F#|-----------------|---------------5-|-6-6-6-6-6-6-6-6-|-----------------|
C#|-3-3-3-3-3-3-3-3-|-6-6-6-6-6-6-8---|-----------------|-6-6-6-6-8-8-6-5-|
G#|-----------------|-----------------|-----------------|-----------------|

E |-----------------|-----------------|-----------------|-----------------|
B |-----------------|-----------------|-----------------|-----------------|
F#|-----------------|-----------------|-8-8-8-8-8-8-8-8-|-6-6-6-6-6-6-6-6-|
C#|-3-3-3-3-3-3-3-3-|-6-6-6-6-6-6-6-6-|-----------------|-----------------|
G#|-----------------|-----------------|-----------------|-----------------|


BRIDGE (Apep will rise...) (x8):

E |-----------------|-----------------|
B |-----------------|-----------------|
F#|-----------------|-----------------|
C#|-----------------|-----------------|
G#|-3h5-5-6p5-5-6p5-|-5-8p5-5-6p5-5-5-|


GUITAR SOLO:

E |-----------------|-----------------|-----------------|-----------------|
B |-----------------|-----------------|-----------------|-----------------|
F#|-3-3-3-3-3-3-3-3-|-5-5-5-5-5-5-5-5-|-7-7-7-7-7-7-7-7-|-7-7-7-7-----0-2-|
C#|-----------------|-----------------|-----------------|---------3-3-----|
G#|-----------------|-----------------|-----------------|-----------------|

E |-----------------|-----------------|-----------------|-----------------|
B |-----------------|-----------------|-----------------|-----------------|
F#|-3-3-3-3-3-3-3-3-|-5-5-5-5-5-5-5-5-|-7-7-7-7-7-7-7-7-|-----------------|
C#|-----------------|-----------------|-----------------|-7-7-7-7-7-7-5-7-|
G#|-----------------|-----------------|-----------------|-----------------|

E |-----------------|-----------------|-----------------|-----------------|
B |-----------------|-----------------|-----------------|-----------------|
F#|-3-3-3-3-3-3-3-3-|-5-5-5-5-5-5-5-5-|-7-7-7-7-7-7-7-7-|-7-7-7-7---------|
C#|-----------------|-----------------|-----------------|---------3-3-3-3-|
G#|-----------------|-----------------|-----------------|-----------------|

E |-----------------|-----------------|-----------------|-----------------|
B |-----------------|-----------------|-----------------|-----------------|
F#|-3-3-3-3-3-3-3-3-|-5-5-5-5-5-5-5-5-|-----------------|-----------------|
C#|-----------------|-----------------|-----------------|-----------------|
G#|-----------------|-----------------|-3h5-5-6p5-5-6p5-|-5-8p5-5-6p5-5-5-|


CHORUS (Son Of The Sun...):

E |-----------------|-----------------|-----------------|-----------------|
B |-----------------|-----------------|-----------------|-----------------|
F#|-----------------|-----------------|-6-6-6-6-6-6-6-6-|---------3-3-3-3-|
C#|-3-3-3-3-3-3-3-3-|-6-6-6-6-6-6-6-6-|-----------------|-6-6-6-6---------|
G#|-----------------|-----------------|-----------------|-----------------|

E |-----------------|-----------------|-----------------|-----------------|
B |-----------------|-----------------|-----------------|-----------------|
F#|-----------------|-----------------|-8-8-8-8-8-8-8-8-|-6-6-6-6-6-----5-|
C#|-3-3-3-3-3-3-3-3-|-6-6-6-6-6-6-6-6-|-----------------|-----------6-8---|
G#|-----------------|-----------------|-----------------|-----------------|

E |-----------------|-----------------|-----------------|-----------------|
B |-----------------|-----------------|-----------------|-----------------|
F#|-----------------|---------------5-|-6-6-6-6-6-6-6-6-|-----------------|
C#|-3-3-3-3-3-3-3-3-|-6-6-6-6-6-6-8---|-----------------|-6-6-6-6-8-8-8-8-|
G#|-----------------|-----------------|-----------------|-----------------|

E |-----------------|-----------------|-----------------|-----------------|
B |-----------------|-----------------|-----------------|-----------------|
F#|-----------------|-----------------|-8-8-8-8-8-8-8-8-|-6-6-6-6-6-6-6-6-|
C#|-3-3-3-3-3-3-3-3-|-6-6-6-6-6-6-6-6-|-----------------|-----------------|
G#|-----------------|-----------------|-----------------|-----------------|


OUTRO:

E |-----------------|-----------------|-----------------|-----------------|
B |-----------------|-----------------|-----------------|-----------------|
F#|-----------------|-2-2-2-2-2-2-2-2-|-3-3-3-3-3-3-3-3-|---------0-0-0-0-|
C#|-0-0-0-0-0-0-0-0-|-----------------|-----------------|-3-3-3-3---------|
G#|-----------------|-----------------|-----------------|-----------------|

E |-----------------|-----------------|-----------------|-----------------|
B |-----------------|-----------------|-----------------|---------0-0-0-0-|
F#|-----------------|-----------------|-0-0-0-0-0-0-0-0-|-3-3-3-3---------|
C#|-0-0-0-0-0-0-0-0-|-3-3-3-3-3-3-3-3-|-----------------|-----------------|
G#|-----------------|-----------------|-----------------|-----------------|

E |-----------------|-----------------|-----------------|-----------------|
B |-----------------|-----------------|-----------------|-----------------|
F#|-----------------|-2-2-2-2-2-2-2-2-|-3-3-3-3-3-3-3-3-|---------0-0-3-5-|
C#|-0-0-0-0-0-0-0-0-|-----------------|-----------------|-3-3-3-3---------|
G#|-----------------|-----------------|-----------------|-----------------|

E |-----------------|-----------------|-----------------|-----------------|
B |-----------------|-----------------|-----------------|-----------------|
F#|-7-7-7-7-7-7-7-7-|-5-5-5-5-5-5-5-5-|-4-4-4-4-4-4-4-4-|-3-3-3-3-5-5-5-5-|
C#|-----------------|-----------------|-----------------|-----------------|
G#|-----------------|-----------------|-----------------|-----------------|

E |-----------------|
B |-----------------|
F#|-----------------|
C#|-0---------------|
G#|-----------------|


****************************
| h : Hammer On
| p : Pull Off
****************************
Suggest correction
Give kudos to tab author, rate the tab!
1 2 3 4 5
comments
print report bad tab
guest
You may want to rate the tab now too:
select rating
Wanna post a correction for this tab? Suggest correction