Oops, an error
Loading. Please wait.

The Khlysti Evangelist Bass Tab

10 views 1 this week
no commentswrite comment
1 2 3 4 5
3 more votes to show rating
add to favorites
launch autoscroll
font size
0
reset
guitar tuner
Autoscroll
slow
fast
+/-
esc
set tempo
stop
Help us to improve Ultimate-Guitar.com Take our survey!
×
Author
Difficulty
Tuning
intermediate
C# G# E B F# C#
Title: The Khlysti Evangelist
Artist: Therion
Album: Sirius B
Bassist: Johan Niemann
Composer: Christofer Johnsson / Johan Niemann
Tabbed By: FLBatista
Tunning: 2,5 step's down (C#,F#,B,E)


MAIN RIFF:

E |---------------------------------|-------------------------------|
B |---------------------------------|---------------------0h1-------|x2
F#|-0-0-0-0-0-0-0-0-0-0-0-0-0-0-0-0-|-0-0-0-0-0-0-0-0-0-0------3--2-|
C#|---------------------------------|-------------------------------|


VERSE (Rasputin, the Black Munk's...):

E |-----------------------------|
B |-----------------------------|x3
F#|-0-0--0-0-0--0-0-0--0-0-0--0-|
C#|-----------------------------|

E |-----------------------------|
B |-----------------------------|
F#|-5-5--5-5-5--5-6-6--6-6-6--6-|
C#|-----------------------------|

E |-----------------------------|
B |-----------------------------|x3
F#|-0-0--0-0-0--0-0-0--0-0-0--0-|
C#|-----------------------------|

E |-----------------------------|
B |-----------------------------|
F#|-5-5--5-5-5--5-6-6--6-6-6----|
C#|--------------------------5\-|


PRE CHORUS (x2):

E |--------------------------------|--------------------------------|
B |--------------------------------|------------------2-------------|
F#|-----0-2-3-2--------0-2-3-2-----|-----0-2-3-2--------0-2-3-2-----|
C#|-1p0---------0-4--0---------0-0-|-1p0---------0-4------------0-0-|


CHORUS (In Sibiria you saw...):

E |---------------------------------|---------------------------------|
B |---------------------------------|---------------------------------|
F#|-0-0-0-0-0-0-0-0-0-0-0-0-0-0-0-0-|-0-0-0-0-0-0-0-0-0-0-0-0-0-0-2-3-|
C#|---------------------------------|---------------------------------|

E |---------------------------------|---------------------------------|
B |---------------------------------|---------------------------------|
F#|-5-5-5-5-5-5-5-------------------|-0-0-0-0-0-0-0-0-----------0-2-3-|
C#|---------------0-1-1-1-1-1-1-1-1-|-----------------3-3-3-3-3-------|

E |---------------------------------|
B |---------------------------------|x2
F#|-0-0-0-0-0-0-0-0-0-0-0-0-0-0-0-0-|
C#|---------------------------------|

E |---------------------------------|---------------------------------|
B |---------------------------------|---------------------------------|
F#|---------------------------------|---------------------------------|
C#|-3-3-3-3-3-3-3-3-1-1-1-1-1-1-1-1-|-0-0-0-0-0-0-0-0-0-0-0-0-0-0-0-0-|


MAIN RIFF:

E |---------------------------------|-------------------------------|
B |---------------------------------|---------------------0h1-------|x2
F#|-0-0-0-0-0-0-0-0-0-0-0-0-0-0-0-0-|-0-0-0-0-0-0-0-0-0-0------3--2-|
C#|---------------------------------|-------------------------------|


VERSE (Rasputin, your fever...):

E |-----------------------------|
B |-----------------------------|x3
F#|-0-0--0-0-0--0-0-0--0-0-0--0-|
C#|-----------------------------|

E |------------------------2-4-5-|
B |------------------------------|
F#|-5-5--5-5-5--5-6-6--6-6-------|
C#|------------------------------|

E |-----------------------------|
B |-----------------------------|
F#|-0-0--0-0-0--0-0-0--0-0-0--0-|
C#|-----------------------------|

E |-----------------------------|
B |-----------------------------|
F#|-0-0--0-0-0--0-0-0--------3--|
C#|--------------------0-3-0----|

E |-----------------------------|
B |-----------------------------|
F#|-0-0--0-0-0--0-0-0--0-0-0--0-|
C#|-----------------------------|

E |------------9-7--------------|
B |---------9-------9--7--5-----|
F#|-5--/-8----------------------|
C#|--------------------------5\-|


PRE CHORUS (x2):

E |--------------------------------|--------------------------------|
B |--------------------------------|------------------2-------------|
F#|-----0-2-3-2--------0-2-3-2-----|-----0-2-3-2--------0-2-3-2-----|
C#|-1p0---------0-4--0---------0-0-|-1p0---------0-4------------0-0-|


CHORUS (Fell the ecstacy when he...):

E |---------------------------------|---------------------------------|
B |---------------------------------|---------------------------------|
F#|-0-0-0-0-0-0-0-0-0-0-0-0-0-0-0-0-|-0-0-0-0-0-0-0-0-0-0-0-0-0-0-2-3-|
C#|---------------------------------|---------------------------------|

E |---------------------------------|---------------------------------|
B |---------------------------------|---------------------------------|
F#|-5-5-5-5-5-5-5-------------------|-0-0-0-0-0-0-0-0-----------0-2-3-|
C#|---------------0-1-1-1-1-1-1-1-1-|-----------------3-3-3-3-3-------|

E |---------------------------------|
B |---------------------------------|x2
F#|-0-0-0-0-0-0-0-0-0-0-0-0-0-0-0-0-|
C#|---------------------------------|

E |---------------------------------|---------------------------------|
B |---------------------------------|---------------------------------|
F#|---------------------------------|---------------------------------|
C#|-3-3-3-3-3-3-3-3-1-1-1-1-1-1-1-1-|-0-0-0-0-0-0-0-0-0-0-0-0-0-0-0-0-|


PRE SOLO:

E |-----------------------|
B |-----------------------|x3
F#|-0-0-----0-0-----0-0---|
C#|-----------------------|

E |-------------------|
B |-------------------|
F#|-5--------6--------|
C#|-------------------|


GUITAR SOLO:

E |--------------------------------------------------|
B |--------------------------------------------------|
F#|--------------------------------------------------|
C#|-3-p1--0--0--0--0--3-p1--0--0--0--0--3-p1--0--5-5-|

E |-------------------------------------------------|
B |-------------------------------------------------|x2
F#|-------------------------------------------------|
C#|-6-\--0--0--0--0--3-p1--0--0--0--0--3-p1--0--5-5-|

E |-------------5h7-5------5-----|
B |---------5h7--------5-7---7-5-|
F#|------------------------------|
C#|-5-5-5-5----------------------|

E |--------------------------------------------------|
B |--------------------------------------------------|
F#|--------------------------------------------------|
C#|-3-p1--0--0--0--0--3-p1--0--0--0--0--3-p1--0--5-5-|

E |-------------------------------------------------|
B |-------------------------------------------------|x2
F#|-------------------------------------------------|
C#|-6-\--0--0--0--0--3-p1--0--0--0--0--3-p1--0--5-5-|

E |----------------------------|
B |---------5h7----------------|
F#|-------------5h7-7----7-7-7-|
C#|-5-5-5-5--------------------|

E |-----------------------|
B |-----------------------|x3
F#|-5-5-----5-5-----5-5---|
C#|-----------------------|

E |-------------------|
B |-3------------5----|
F#|---------3---------|
C#|-------------------|


CHORUS (In Sibiria you saw the...):

E |---------------------------------|---------------------------------|
B |---------------------------------|---------------------------------|
F#|-0-0-0-0-0-0-0-0-0-0-0-0-0-0-0-0-|-0-0-0-0-0-0-0-0-0-0-0-0-0-0-2-3-|
C#|---------------------------------|---------------------------------|

E |---------------------------------|---------------------------------|
B |---------------------------------|---------------------------------|
F#|-5-5-5-5-5-5-5-------------------|-0-0-0-0-0-0-0-0-----------0-2-3-|
C#|---------------0-1-1-1-1-1-1-1-1-|-----------------3-3-3-3-3-------|

E |---------------------------------|
B |---------------------------------|x2
F#|-0-0-0-0-0-0-0-0-0-0-0-0-0-0-0-0-|
C#|---------------------------------|

E |---------------------------------|---------------------------------|
B |---------------------------------|-------------------2-------------|
F#|---------------------------------|---------------------0-2-3-2-0---|
C#|-3-3-3-3-3-3-3-3-1-1-1-1-1-1-1-1-|-0-0-0-0-0-0-0-0-0-------------3-|

E |---------------------------------|---------------------------------|
B |---------------------------------|---------------------------------|
F#|-0-0-0-0-0-0-0-0-0-0-0-0-0-0-0-0-|-0-0-0-0-0-0-0-0-0-0-0-0-0-0-2-3-|
C#|---------------------------------|---------------------------------|

E |---------------------------------|---------------------------------|
B |---------------------------------|-----------------5-5-5-5-5-------|
F#|-5-5-5-5-5-5-5-------------------|-0-0-0-0-0-0-0-0-----------0-2-3-|
C#|---------------0-1-1-1-1-1-1-1-1-|---------------------------------|

E |---------------------------------|---------------------------------|
B |---------------------------------|-------------------------5h7-----|
F#|-0-0-0-0-0-0-0-0-0-0-0-0-0-0-0-0-|-0-0-0-0-0-0-0-0-0-0-0-7-----5h7-|
C#|---------------------------------|---------------------------------|

E |---------------------------------|---------------------------------|
B |---------------------------------|---------------------------------|
F#|---------------------------------|---------------------------------|
C#|-3-3-3-3-3-3-3-3-1-1-1-1-1-1-1-1-|-0-0-0-0-0-0-0-0-0-0-0-0-0-0-0-0-|


MAIN RIFF:

E |---------------------------------|-------------------------------|
B |---------------------------------|---------------------0h1-------|x2
F#|-0-0-0-0-0-0-0-0-0-0-0-0-0-0-0-0-|-0-0-0-0-0-0-0-0-0-0------3--2-|
C#|---------------------------------|-------------------------------|


****************************
h : Hammer On
p : Pull Off
/ : Slide Up
\ : Slide Down
****************************
Suggest correction
Give kudos to tab author, rate the tab!
1 2 3 4 5
comments
print report bad tab
guest
You may want to rate the tab now too:
select rating
Wanna post a correction for this tab? Suggest correction