Oops, an error
Loading. Please wait.

Azul Chords

version 1
version 1

Whole song

52 views 1 this week
no commentswrite comment
1 2 3 4 5
3 more votes to show rating
add to favorites
launch autoscroll
font size
0
reset
transpose
0
reset
display chords
guitar tuner
Autoscroll
slow
fast
+/-
esc
set tempo
stop
Help us to improve Ultimate-Guitar.com Take our survey!
×
EL INTRO 2 VECES


e--------------------------------------------
b---------------------------0----------------
g---------------------------1----------------
d------2---2--------------2---2--------------
a----2---2---2----------2-------2------------
e--0------------------0-----------4----------


E                    Gsostm
Alguien miró una vez, miró sin comprender,
E                      Gsost
pasaste junto a mí para escapar, liberar.
E                     Gsostm
Una estación en gris, lista para estallar con
E
fuerza contempla el mundo

CORO:
Gsost                 E
Y no llorar, no llorar por ti,
           Csostm           Gsost
no llorar jamás, no llorar por ti y no entiendo por que tú ya
         E
No estás aquí.


OTRA VEZ EL INTRO 2 VECES


e--------------------------------------------
b---------------------------0----------------
g---------------------------1----------------
d------2---2--------------2---2--------------
a----2---2---2----------2-------2------------
e--0------------------0-----------4----------


E                    Gsostm
No tuve explicación, no tuviste razón,
E                                   Gsost
cuando te fuiste el tiempo terminó, comenzó,
E                        Gsostm
brilla la estrella azul, arden los ojos tú,
E
dime que estás conmigo

CORO X3:
Gsost                      E             Csostm
y no llorar, no llorar por ti, no llorar jamás,
              Gsost
no llorar por ti y no entiendo por qué ya no

estás aquí...!


ESPERO Y LES GUTE PUTIS Y ARRIBA THERMO
Suggest correction
Give kudos to tab author, rate the tab!
1 2 3 4 5
comments
print report bad tab
guest
You may want to rate the tab now too:
select rating
Wanna post a correction for this tab? Suggest correction