Oops, an error
Loading. Please wait.

Azul Tab

version 1
version 1

Whole song

by Thermo
26 views 1 this week
no commentswrite comment
1 2 3 4 5
3 more votes to show rating
add to favorites
×
Save as Personal and add changes to this tab that will be seen only by you. Learn more ›
×
You can save this tab as Personal to edit and correct it or add notes. All changes will be seen only by you. Learn more »
save as personal
new!
launch autoscroll
font size
0
reset
how to read this tab
guitar tuner
Autoscroll
slow
fast
+/-
esc
set tempo
stop
Aja el intro bien acá lento si son cuerda de metal se oye mas fregona

2 veces intro

E----4---4------4----4---4-------------
A------4---3--4--------4---------------
D--------------------------6--4--3--1--
g--------------------------------------
b--------------------------------------
e--------------------------------------


     C                                Em
Alguien miró una vez, miró sin comprender,
 C                        E
pasaste junto a mí para escapar, liberar.
     C
Una estación en gris, lista para estallar con
 Em
fuerza contempla el mundo

  Em                       C
Y no llorar, no llorar por ti,
           Am                  E
no llorar jamás, no llorar por ti y no entiendo por que tú ya
            C
No estás aquí .

Son como 2 veces


E----4---4------4----4---4-------------
A------4---3--4--------4---------------
D--------------------------6--4--3--1--
g--------------------------------------
b--------------------------------------
e--------------------------------------

C
No tuve explicación, no tuviste razón,
                                 E
cuando te fuiste el tiempo terminó, comenzó,
  C                                    Em
brilla la estrella azul, arden los ojos tú,

dime que estás conmigo

  Em                      C                Am
y no llorar, no llorar por ti, no llorar jamás,
              E
no llorar por ti y no entiendo por qué ya no
         C
estás aquí...!

Se repite el coro como 3 veces! Ojala y este bien. Nos vemos.


ahi pues si no les lateo ahi esta mi correo para que me la hagan de a pedo
por ser mi primera tab que saco ok
Suggest correction
Give kudos to tab author, rate the tab!
1 2 3 4 5
comments
print report bad tab
guest
Wanna post a correction for this tab? Suggest correction