Oops, an error
Loading. Please wait.

Contra Mi Bass

version 2
version 2

Whole song

Interactive

by Thermo
29 views 1 this week
no commentswrite comment
1 2 3 4 5
3 more votes to show rating
add to favorites
launch autoscroll
font size
0
reset
guitar tuner
×
Best way to learn
"Contra Mi"
Autoscroll
slow
fast
+/-
esc
set tempo
stop
es mi primer tab
tengo pequeñas dudas en algunos pedazos pero creo q la mayoria
esta correcto.
x fas la partes que estan mal si pueden corriganlas para que quede
100% correcta
xq es una buena rola
proximamente con correxiones


intro x4

G|---------------------------------------------------------------|
D|---------------------------------------------------------------|
A|--------------2--2--2--2-2-2------------------1--1--1--0--0--0-|
E|-0--0--0-0-0------------------3--3--3--3-3-3-------------------|


verso x2
G|--------------------------------------------------|
D|--------------------------------------------------|
A|------------------2-2-2-2-------------------------|
E|--1-1-1-1-1-1-1-1---------0-0-0-0-0-0-0-0-3-3-3-3-|

G|--------------------------------|
D|--------------------------------|
A|-1-1-1-1-1-1-1-1-3-3-3-3-5-5-5-5|
E|--------------------------------|


coro
G|--------------------------------------------------------------|
D|--------------------------------------------------------------|
A|-7--7--7-7-7-7----3--3--3-3-3-3-2--2--2-2-2-2--5--5--5-5-5-5--|
E|--------------------------------------------------------------|

G|--------------------------------------------------------------|
D|--------------------------------------------------------------|
A|-7--7--7-7-7-7----3--3--3-3-3-3-2--2--2-2-2-2--5--5--5-5-5-5--|
E|--------------------------------------------------------------|

G|--------------------------------------------------------------|
D|--------------------------------------------------------------|
A|-7--7--7-7-7-7----3--3--3-3-3-3-2--2--2-2-2-2--5--5--5-5-5-5--|
E|--------------------------------------------------------------|

G|------------------------------------------------------------------|
D|------------------------------------------------------------------|
A|-7--7--7-7-7-7----3--3--3-3-3-3-2--2--2-2-2-2--5-5-7-9-7----------|
E|---------------------------------------------------------10-9-7---|

Se repite el intro
G|----------------------------------------------------------------|
D|----------------------------------------------------------------|
A|---------------2--2--2--2-2-2------------------1--1--1--0--0--0-|
E|-0--0--0-0-0-------------------3--3--3--3-3-3-------------------|

verso
G|--------------------------------------------------|
D|--------------------------------------------------|
A|------------------2-2-2-2-------------------------|
E|--1-1-1-1-1-1-1-1---------0-0-0-0-0-0-0-0-3-3-3-3-|

G|--------------------------------|
D|--------------------------------|
A|-1-1-1-1-1-1-1-1-3-3-3-3-5-5-5-5|
E|--------------------------------|

y continua en
G|-------------------------------------------------|
D|-------------------------------------------------|
A|--------------------------3-3-3-3-3-3-3-3-2-2-2-2|
E|--1-1-1-1-1-1-1-1-0-0-0-0------------------------|-

|------------------------------------------|
|------------------------------------------|
|-------------------------------3/5-3/5-3/5|
|-3-3-3-3-5-5-5-5-5-3-3-5-5-7-7------------|


coro
G|--------------------------------------------------------------|
D|--------------------------------------------------------------|
A|-7--7--7-7-7-7----3--3--3-3-3-3-2--2--2-2-2-2--5--5--5-5-5-5--|
E|--------------------------------------------------------------|

G|--------------------------------------------------------------|
D|--------------------------------------------------------------|
A|-7--7--7-7-7-7----3--3--3-3-3-3-2--2--2-2-2-2--5--5--5-5-5-5--|
E|--------------------------------------------------------------|

G|--------------------------------------------------------------|
D|--------------------------------------------------------------|
A|-7--7--7-7-7-7----3--3--3-3-3-3-2--2--2-2-2-2--5--5--5-5-5-5--|
E|--------------------------------------------------------------|

G|------------------------------------------------------------------|
D|------------------------------------------------------------------|
A|-7--7--7-7-7-7----3--3--3-3-3-3-2--2--2-2-2-2--5-5-7-9-7----------|
E|---------------------------------------------------------10-9-7---|

solo en la parte donde se escucha el teclado
G|-3--1----------3----1----3---4--------|
D|-------4---1--------------------------|
A|--------------------------------------|
E|--------------------------------------|

 Y continua en
G|--------------------------------------------------------------|
D|--------------------------------------------------------------|
A|-7--7--7-7-7-7----3--3--3-3-3-3-2--2--2-2-2-2--0-0-0-0-0-0----|
E|--------------------------------------------------------------|

G|--------------------------------------------------------------|
D|--------------------------------------------------------------|
A|-7--7--7-7-7-7----3--3--3-3-3-3-2--2--2-2-2-2--0?0-0-0-0-0----|
E|--------------------------------------------------------------|

coro
G|--------------------------------------------------------------|
D|--------------------------------------------------------------|
A|-7--7--7-7-7-7----3--3--3-3-3-3-2--2--2-2-2-2--5--5--5-5-5-5--|
E|--------------------------------------------------------------|

G|--------------------------------------------------------------|
D|--------------------------------------------------------------|
A|-7--7--7-7-7-7----3--3--3-3-3-3-2--2--2-2-2-2--5--5--5-5-5-5--|
E|--------------------------------------------------------------|

G|--------------------------------------------------------------|
D|--------------------------------------------------------------|
A|-7--7--7-7-7-7----3--3--3-3-3-3-2--2--2-2-2-2--5--5--5-5-5-5--|
E|--------------------------------------------------------------|

G|------------------------------------------------------------------|
D|------------------------------------------------------------------|
A|-7--7--7-7-7-7----3--3--3-3-3-3-2--2--2-2-2-2--5-5-5-5-5-7--------|
E|------------------------------------------------------------------|
Suggest correction
Give kudos to tab author, rate the tab!
1 2 3 4 5
comments
print report bad tab
guest
You may want to rate the tab now too:
select rating
Wanna post a correction for this tab? Suggest correction