Oops, an error
Loading. Please wait.

Control Control Bass

by Thermo
13 views 3 this week
no commentswrite comment
1 2 3 4 5
3 more votes to show rating
add to favorites
launch autoscroll
font size
0
reset
guitar tuner
×
Best way to learn
"Control Control"
Autoscroll
slow
fast
+/-
esc
set tempo
stop
intro

G-----------------------------------------------
D-----------------------------------------------
A----4~--4-4~---4(x16)--------------------------
E-----------------------5(x8)--2(x4)--4(x4)---?-


G--------------------------------------------------
D--------------------------------------------------
A----4(x16)----------------------------------------
E-------------5(x8)--2(x4)--4(x4)---?--------------

verso:
Contro, control...(hasta que termina el verso)

G----------------------------------------------------------
D---------------7------------------------------------------ x4
A--44444-7-775---------------------------------------------
E-----------------?5--5555-5--222--444---------------------


Y nunca dar un paso atras...
(se queda asi hasta que empieza otro verso)
G-----------------------------------------------
D-----------------------------------------------
A--4--4--4--4--4--4--4--4--4--4--4--4--4--4--4--
E---------------------------------------------?-

Control, pierdo el control..
G---------------------------------------------------------
D---------------------------------------------------------
A--4--4--4--4--4--4--4--4--0--4--4--4--4--4--4--4h6-4h6--- x 2
E---------------------------------------------?-----------


G---------------------------------------------------
D--------------------------7--7--7--7---------------
A--4--4--4--4--6--6--7--7--------------7--7--6--6---
E---------------------------------------------?-----


G----------------------------------------------------
D--------------------------7--7--7--7----------------
A--4--4--4--4--6--6--7--7--------------7--7--6--6--4-
E---------------------------------------------?------

(Se detiene y empieza guitarra)

G----------------------------------------------------
D----------------------------------------------------
A---4~---4---4h6--4~---4---4~---4---4~---4-----------
E---------------------------------------------?------


G-----------------------------------------------------
D-----------------77777777/99977777-------------------
A-4444444466667777------------------------------------
E---------------------------------------------?-------


G---------------------------------------------------
D---------------------------------------------------
A-4444444466667777----------------------------------
E------------------5555555522224444-----------------


G----------------------------------------------------
D----------------------------------------------------
A--6~-6~-6~-66666------------------------------------
E---------------------------------------------?------


Control!...
G----------------------------------------------------
D---------------------99999999-----------------------
A--66666666-8888-9999----------9999-8888-------------
E---------------------------------------------?------


G----------------------------------------------------
D----------------------------------------------------
A--66666666-8888-9999--------------------------------
E----------------------77777777-4444-6666-----?------


G----------------------------------------------------
D---------------9------------------------------------
A--6666-6-999-7--------------------------------------x2
E-----------------7-7777-7-444-666-------------------


G----------------------------------------------------
D----------------------------------------------------
A----6~---6-----6~---6-----6~------------------------
E---------------------------------------------?------
Suggest correction
Give kudos to tab author, rate the tab!
1 2 3 4 5
comments
print report bad tab
guest
You may want to rate the tab now too:
select rating
Wanna post a correction for this tab? Suggest correction