Oops, an error
Loading. Please wait.

De Frente Tab

31 views 1 this week
no commentswrite comment
1 2 3 4 5
3 more votes to show rating
add to favorites
launch autoscroll
font size
0
reset
how to read this tab
guitar tuner
Autoscroll
slow
fast
+/-
esc
set tempo
stop
Help us to improve Ultimate-Guitar.com Take our survey!
×
Intro 2 veces:

e---------------------------------9-9-|
B-6-6-6--9-9-9--6-6-6--9-9-9--6-6-----|
G-------------------------------------| 2 veces
D-------------------------------------|
A-------------------------------------|
E-------------------------------------|

e-8-8-8---------------------------8-8-8--------------------------|
B-------9-9-9--6-6-6-------------------9-9-9--6-6-6--------------|
G--------------------6-6-6-4-4-6-6-------------------6-6-4-4-6-6-|
D----------------------------------------------------------------|
A----------------------------------------------------------------|
E----------------------------------------------------------------|

A#m G# F# Fm

Verso:

A#m                                     G#
No hay vuelta atras mira hacia el frente no hay lugar para soñar

A#m                         F#
Y nadie mas gano el derecho de llegar a este lugar

Pre coro:

C#                      Fm
Mi compasion se termino ya no siento nada no me importa nada

A#m             F#m
Sin mi reaccion no hay tu reaccion

Coro:

C#
El corazon me estorba y las razones sobran
(No no te deje partir)

Fm
escoge tu camino sobre nuestro destino
(No tienes que mentir)

A#m
no hay nada que escribir no hay nada que decir
(Siempre nos dolera)
F#m
sin mirar sin mirar atras


C#
El corazon me estorba y las razones sobran
(SI siempre llegaras)

Fm
escoge tu camino sobre nuestro destino
(Tu cuerpo no da mas)

A#m
no hay nada que escribir no hay nada que decir
(No mirar atras)

F#m
sin mirar sin mirar atras

A#m  F#m  A#m  F#m

Outro:

A#m
caminaras olvidaras transformaras

G#
No quiero soñar no quiero escapar no

A#m
Mira hacia el frente los recuerdos quedaran

F#m
Tantas fotos que guardar

Pre coro:

C#                      Fm
Mi compasion se termino ya no siento nada no me importa nada

A#m             F#m
Sin mi reaccion no hay tu reaccion

Coro:

C#
El corazon me estorba y las razones sobran
(No no te deje partir)

Fm
escoge tu camino sobre nuestro destino
(No tienes que mentir)

A#m
no hay nada que escribir no hay nada que decir
(Siempre nos dolera)

F#m
sin mirar sin mirar atras


C#                  Fm
Si siempre llegaras

Fm                  A#m
Tu cuerpo no da mas

A#m              F#m
y no mirar atras

F#m
Sin mirar atras

C#  Fm  A#m  F#m

Pues creo que eso es todo, lo malo es que habia sacado los punteos
PEro como sobrepasan las 75 lines pos no los pude subir, pero
los tengo guardados en documentos de texto

Si quieren pos se los paso ahi sta el msn va..
kamara saludos
UN SALUDOTE A TODA LA BANDA CCHERA y AL CCH SUR!!!
...
Suggest correction
Give kudos to tab author, rate the tab!
1 2 3 4 5
comments
print report bad tab
guest
You may want to rate the tab now too:
select rating
Wanna post a correction for this tab? Suggest correction