Oops, an error
Loading. Please wait.

Dieciseis Tab

version 1
version 1

Whole song

by Thermo
38 views 3 this week
no commentswrite comment
1 2 3 4 5
3 more votes to show rating
add to favorites
launch autoscroll
font size
0
reset
how to read this tab
guitar tuner
×
Best way to learn
"Dieciseis"
Autoscroll
slow
fast
+/-
esc
set tempo
stop
bueno pues ahi esta otra tmb excelente cancion de thermo
ahi estan marcados los tiemopos en los ke se toka cada nota
escuchen la cancion mientra la tokan para saber en donde va
cada nota


Intro:   solía reír si estabas tú

1----------------------------------------------
2----------------------------------------------
3----88888888-66666666-33333333-8888-6666------
4----88888888-66666666-33333333-8888-6666------    x 1
5----66666666-44444444-11111111-6666-4444------
6----------------------------------------------

Solía jugar y pensar que era mi lugar?.

1---------------------------------------------
2---------------------------------------------
3--4444444-6666666-33333333-888888-666666-----
4--4444444-6666666-33333333-888888-666666----- x 3
5--2222222-4444444-11111111-666666-444444-----
6---------------------------------------------

Pre verso:

e-------------------------------------------------------|
b-------------------------------------------------------|
g?11-11-11-11-11?--10-10-10-10-10----11-11-11-11-11-x 2-|
d?11-11-11-11-11---11-11-11-11-11----9--9--9--9--9------|
a?------------------------------------------------------|
D-------------------------------------------------------|

e --9-----------------|
b --x--11--9--9-11----|
g ?11--11-11-11-11----|
d --9--9--9--9--9-----|
a ?-------------------|
D --------------------|

Verso:

Guitarra: 1

e --------------------------------------------|
b --------------------------------------------|
g ?11-11-11-11-11?x 2----10-10-10-10-10-x 2---|
d ?11-11-11-11-11--------11-11-11-11-11-------|
a ?-------------------------------------------|
D --------------------------------------------|
                                                    X 2

e -------------------------------------|
b -------------------------------------|
g ?-11-11-11-11-11-x 2--10-10-10-10-10-|
d ?-9--9--9--9--9-------11-11-11-11-11-
a ?------------------------------------|
D -------------------------------------|


Guitarra: 2   escuchen la cancion para saber el ritmo

e ------------------------------------|
b -----11-12-14-11--------11-12-14----|
g ?11----------------11------------13-|
d ------------------------------------|  x 2
a ?-----------------------------------|
D ------------------------------------|


01:02:


e ---------------------------------------------------|
b ---------------------------------------------------|
g ?10101010-11-11-11-11--11-11-11-11--10-10-10-10----| x 2
d -11111111-11-11-11-11---9-9--9--9---9--9--9--9-----|
a ?--------------------------------------------------|
D ---------------------------------------------------|


Guitarra: 2


e -------13-14--18-19-18-16--------13-14--18-14-13--|
b -11-14---------------------11-14------------------|
g ?-------------------------------------------------|
d --------------------------------------------------|
a ?-------------------------------------------------|
D --------------------------------------------------|


e -------13-14--18-19-18-16--------13-14--18---21---|
b -11-14---------------------11-14------------------|
g ?-------------------------------------------------|
d --------------------------------------------------|
a ?-------------------------------------------------|
D --------------------------------------------------|


01:30:


Verso:

Guitarra: 1

e ----------------------------------------|
b ----------------------------------------|
g ?11-11-11-11-11?x 2--10-10-10-10-10-x 2-|
d ?11-11-11-11-11------11-11-11-11-11-----|
a ?---------------------------------------|
D ----------------------------------------|


e -----------------------------------|
b -----------------------------------|
g -11-11-11-11-11-x 2--10-10-10-10-10|
d -9--9--9--9--9-------11-11-11-11-11|
a ?----------------------------------|
D -----------------------------------|


e --------------------------------|
b --------11--12--14--11--12--11--|
g ?11-13--x---x---x---x---x---x---|
d ?11-11--11--11--11--11--11--11--|X4
a ?-------------------------------|
D --------------------------------|


Guitarra: 2

e ---------------------------------|
b ---11-12-14-11-------11-12-14----|
g ?11---------------11----------13-|
d ---------------------------------|  x 2
a ?--------------------------------|
D ---------------------------------|


01:55

Guitarra: 1

e------------------------------9-------
b----9-11-9-----10/11-----9-11---11----
g-11--------11---------11--------------
d--------------------------------------
a--------------------------------------
D--------------------------------------

e-------------------------9--------
b----9-11-9--------9-11-9---11-----
g-11--------11--11-----------------
d----------------------------------
a----------------------------------
d----------------------------------

guitarra : 2

e --------------------------------|
b --------------------------------| X 2
g ?11--------------------10-------|
d ?11--------------------11-------|
a ?-------------------------------|
D --------------------------------|

02:07:
Guitarra: 1

e --------------------------------------------|
b --------------------------------------------|
g ?11-11-11-11-11?x 2----10-10-10-10-10-x 2---|
d ?11-11-11-11-11--------11-11-11-11-11-------|
a ?-------------------------------------------|
D --------------------------------------------|


e -------------------------------------|
b -------------------------------------|
g ?-11-11-11-11-11-x 2--10-10-10-10-10-|  X3
d ?-9--9--9--9--9-------11-11-11-11-11-
a ?------------------------------------|
D -------------------------------------|


Guitarra : 2

e -------------------------------------------------|
b -----9-----9-----9----9------9----9----9----9----|
g --11----11----11---11-----10---10---10---10------|
d ?------------------------------------------------|   X 6
a ?------------------------------------------------|
D -------------------------------------------------


02:42:

e -------9------------------12-------16----------|
b -----9------9--11------9---------9-------------|
g --11-----10---------11--------11---------------|
d ?----------------------------------------------|   X 2
a ?----------------------------------------------|
D -----------------------------------------------
03:05:

e --------------------------------------------|
b --------------------------------------------|
g ?11-11-11-11-11?x 2----10-10-10-10-10-x 2---| X 3
d ?11-11-11-11-11--------11-11-11-11-11-------|
a ?-------------------------------------------|
D -------------------------------------------|


e -----------------------------------|
b -----------------------------------|
g -11-11-11-11-11-x 2--10-10-10-10-10| X 3
d -9--9--9--9--9-------11-11-11-11-11|
a ?----------------------------------|
D -----------------------------------|


03:17:

Guitarra : 1

e -----------------------------------------|
b -----------------------------------------|
g -----------------------------------------|
d ?-11/13-11----9-----------9-8-9----------| X 16
a ?-----------9---13--9--13----------------|
D -----------------------------------------|

Guitarra: 2

e -----------------------------------------------|
b -----9-----9-----9----9------9----9----9----9--|
g --11----11----11---11-----10---10---10---10----|
d ?----------------------------------------------| X 16
a ?----------------------------------------------|
D -----------------------------------------------


TERMINA CON LA PRIMERA GUITARRA

bueno pues eso es todo espero ke le entiendan si tienen
alguna duda o comentaria pueden agregarme a mi mail ke
es
javier_rsp@ saludos
Suggest correction
Give kudos to tab author, rate the tab!
1 2 3 4 5
comments
print report bad tab
guest
You may want to rate the tab now too:
select rating
Wanna post a correction for this tab? Suggest correction