Oops, an error
Loading. Please wait.

Este No Soy Yo Tab

by Thermo
44 views 1 this week
no commentswrite comment
1 2 3 4 5
3 more votes to show rating
add to favorites
×
Save as Personal and add changes to this tab that will be seen only by you. Learn more ›
×
You can save this tab as Personal to edit and correct it or add notes. All changes will be seen only by you. Learn more »
save as personal
new!
launch autoscroll
font size
0
reset
how to read this tab
guitar tuner
Autoscroll
slow
fast
+/-
esc
set tempo
stop
mmm pues aqui esta la rola me tarde algo y ps tienes unas fallas casi al
final de la rola pero lo demas estoy seguro que esta bien ..
pm = palm mute
~ =dejar sonar
/ =Deslizar :p

Intro:
E------------------------------
B-----------------------------
G----------8-------8------------- se toca 8 veces
D-----6------6--6---------------
A-4-4----4----------------------
E------------------------------

E------------------------------
B------------------------------
G----------8-----8------------- se toca 8 veces
D-----6------6-6---------------
A------------------------------
E-4-4----4---------------------


E------------------------------
B------------------------------
G----------8-------8----------- se toca 4 veces
D-----6------6--6--------------
A-4-4----4---------------------
E------------------------------

E------------------------------
B------------------------------
G----------8-----8------------- se toca 4 veces
D-----6------6-6---------------
A------------------------------
E-4-4----4---------------------

la otra guitarra toca esto

E------
B-----
G-6-6-
D----- (pm) varias veces
A-4-4-
E-----


ya empieza la parte del grito y el cambio de ritmo!

E------------------------------------
B------------------------------------
G-10-10-10-10---6-6--10-10-10---13-13
D------------------------------------ se repite 2 veces
A-8--8--8--8----4-4--8--8--8----11-11
E------------------------------------

luego esto

E------------------------------------------------------------
B------------------------------------------------------------
G----15-15-15-15-15-15-17-17-17-17-17-17-18-18-18-18-18-18--
D----------------------------------------------------------
A----13-13-13-13-13-13-15-15-15-15-15-15-16-16-16-16-16-16--
E------------------------------------------------------------

y otra vez

E------------------------------------
B------------------------------------
G-10-10-10-10---6-6--10-10-10---13-13
D------------------------------------ se repite 2 veces
A-8--8--8--8----4-4--8--8--8----11-11
E------------------------------------


E---------------------------------------------------------------
B----------------------------------------------------------------
G----15-15-15-15-15-15-17-17-17-17-17-17-18-18-18-18-18-18-17-17-17
D-----------------------------------------------------------------
A----13-13-13-13-13-13-15-15-15-15-15-15-16-16-16-16-16-16-15-15-15
E-----------------------------------------------------------------


E-------------------
B------------------
G-10-10---8---8-8--
D------------------ se repite 2 veces
A-8--8----6---6-6
E-----------------


E-------------------------------------------------------
B-------------------------------------------------------
G-10-10---11--11-11----10-10---13---13-13------------6~
D------------------ ---------------------- ----------6~
A-8--8----9---9--9------8--8---11---11-11------------4~
E-------------------------------------------------------

y ya viene la letra y piano:

Siempre (me ves caer)
y no haces nada,
cierro los ojos (y no quiero saber)
si es un día más aquí


luego con la siguiente parte se toca esto rapido
E----------------------------------
B----------------------------------
G-13--11-10--11--10---------------- se toca aprox como 16 veces
D--------------------11-13-11------
A----------------------------------
E----------------------------------
 estoy... lejos... de ti,

 estoy... lejos... de ti,


Luego ya son puras quintas pero no estoy muy seguro en estas:

F#5                F5
ya no eres igual, di que no es verdad,
G#5             C5    C#5
hoy me alejo más de ti,

luego sigue con esto:
Una de las guitarra toka esto!
E---------------------------------------------------------
B-------------------------------------------------------------
G--11-11----11-11---10-10--10-10---13-13--13-13---8-8----10-10
D-------------------------------------------------------------
A--9--9-----9--9---8---8---8--8----11-11--11-11---6-6-----8--8
E----------------------------------------------------------

y la otra toca esto:

E-------------------------------------------------------
B-------------------------------------------------------
G---------------------------------------5-5-------6-6------
D--4-4---4-4----3-3----3-3---6-6--6-6---5-5-------6-6------
A--4-4---4-4----3-3----3-3---6-6--6-6---3-3-------4-4------
E--2-2---2-2----1-1----1-1---4-4--4-4--------------------

y se repite solo cambia al final de esta:

E-----------------------------------------------------------
B---------------------------------------------------------------
G-11-11---11-11--10-10--10-10---13-13---13-13---8-8--10-10/11/10
D------------------------------------ --------------------------
A-9--9----9--9---8---8--8--8----11-11---11-11---6-6---8---8/9/8-
E---------------------------------------------------------------

la otra guitarra queda  igual que la primera vez:
E-------------------------------------------------------
B-------------------------------------------------------
G---------------------------------------5-5-------6-6------
D--4-4---4-4----3-3----3-3---6-6--6-6---5-5-------6-6------
A--4-4---4-4----3-3----3-3---6-6--6-6---3-3-------4-4------
E--2-2---2-2----1-1----1-1---4-4--4-4--------------------


     D#5            F5
(este no soy yo), no soy quien ves morir  (SE REPITE 2 VECES)

D#5          F5
NOOOOOOOOO   NOOOOOOOOOOOO

G#5-F#5-F5   F5
NOOOOOOOOOO  NOOOOOOOOOO

D#5          F5
NOOOOOOOOO   NOOOOOOOOOOOO   (UNAS 2 VECES)

Y CREO QUE TERMINA CON G#5...

mmm weno pues si alguien podria confirmar
o corregir el final pues estaria bien :P jejeje
Suggest correction
Give kudos to tab author, rate the tab!
1 2 3 4 5
comments
print report bad tab
guest
Wanna post a correction for this tab? Suggest correction