Oops, an error
Loading. Please wait.

Fuego Interno Bass Tab

17 views 1 this week
no commentswrite comment
1 2 3 4 5
3 more votes to show rating
add to favorites
launch autoscroll
font size
0
reset
guitar tuner
×
Best way to learn
"Fuego Interno"
Autoscroll
slow
fast
+/-
esc
set tempo
stop
k ondx, aki djo mi tab d sta kncion
k sta d pkm, necsitan buen oido para
ncontrar los tiempos y podr tokrla...
sta n b-mol...

introw

brilla en mis ojos la ilusion...
oy te vuelvo a ver.....
con la speranza y en al puño l korazon...
sta vs, vengo x ti...

F#-----------------------
C#----------------------- (x2)
G#-----------------------
D#--1-1--1-1?-6-6~-6-6~--

...y nunk pud imaginar...
muchas graxias x todo,
ahora tngo k mirar...
F#----------------------
C#----------------------  (x6)
G#--8-8-8-7-8-8-8-7/8---
D#----------------------

(sto c tok junto kon la guitarra)
F#----------------------
C#------7-5-------------
G#--5-5-----7-8---------
D#----------------------

mirar x mi, kuidar d mi...
y avanzar...
F#------------------------------
C#------------------------------
G#--5(x9)------8(x)/12-8(x)/12--
D#--------6(x)------------------

mirar x mi, kuidar de mi...
F#----------------------------------------
C#----------------------------------------
G#--5(x9)---------------------------------
D#--------6-5-3-5/6-5-3-5/6-5-3-5/6-5-3-5?

F#---------------
C#---------------
G#---------------
D#--6--5--3--1~--


...no es tan dificil star solo...
ahora k ya no stas aki....
F#--------------------------------------------
C#--------------------------------------------
G#--13/12--8~?--15--13?-12--13/12--8--10--7~---
D#--------------------------------------------


F#--------------------------------
C#--------------------------------
G#--5-5-5-5-5-5-5/7?-8(x)---8(x)--
D#--------------------------------

dos siluetas dibujandose...(pnsando, q stare aki)
oi la lluvia no puede apagar mi fuego interno y oi...
las estrellas brillan kon mi korazon...
(pnsando, q stare aki)
dos llamas ardiendo esa es la razon...dl cielo
F#-----------------------------------------------
C#-----------------------------------------------
G#--8(x)?10(x)?12(x)?13(x)--8(x)?10(x)?12(x)?-xx- (x2)
D#-----------------------------------------------


F#---------------------------
C#---------------------------
G#----------3~--5-3~---------
D#--1~--1~-----------5~--5~--

l final.....
F#--------------------------------------------
C#--------------------------------------------
G#--3(x)?8(x)?-5~------5~------3~--5~---------
D#-----------------6~------6~----------5~--1~-

sta kncion va ddikda a sandra...
"ia vs...no s tan dificil star solo...
...ahora k ia no stas aki......"
ps mi mail s: pelusa_bajista@
x si c les ofrec algo.........Sobrx
i ojala puedan kitarle el "bass" al nombre
d al kncion d arriba los q califikn
i ponen las canciones.........
Suggest correction
Give kudos to tab author, rate the tab!
1 2 3 4 5
comments
print report bad tab
guest
You may want to rate the tab now too:
select rating
Wanna post a correction for this tab? Suggest correction