Oops, an error
Loading. Please wait.

Sin Ti Tab

version 2
version 2

Whole song

by Thermo
18 views 1 this week
no commentswrite comment
1 2 3 4 5
3 more votes to show rating
add to favorites
launch autoscroll
font size
0
reset
how to read this tab
guitar tuner
×
Best way to learn
"Sin Ti"
Autoscroll
slow
fast
+/-
esc
set tempo
stop
Ps esta es la 1er tab ke subo esta korrekta segun yo
Y ps ahí sta chekenla


D5                 B5
aun no puedo comprender
 A5                 G5
como es que estas junto a mi
D5                  B5             A5                       G5
aun no puedo comprender como es q estas junto a mi
 D5         B5        A5        G5            D5 C#5 B5
es que siempre ignore esas sonrisas para mi (para mi)

y aki se repite todo de nuevo

se que te preguntaras
porque no te puedo mirar
es que no puedo soportar
verte sufrir todo por mi (por mi)

por ti....
no puedo estar sin ti
no puedo estar sin ti (por ti)

parte del teklado
e------------------------------------|
b------------------------------------|
g--6---8--9--------------------------|ahí kalkulenle
d------------------------------------|
a------------------------------------|
E------------------------------------|

e------------------------------------|
b------------------------------------|
g--9---8--6--------------------------|
d------------------------------------|
a------------------------------------|
E------------------------------------|

e------------------------------------|
b----14---16--17---------------------|
g------------------------------------|
d------------------------------------|
a------------------------------------|
E------------------------------------|


e-----17--16--14---------------------|
b------------------------------------|
g------------------------------------|
d------------------------------------|
a------------------------------------|
E------------------------------------|

Y el interlude es  + o - asi

e------------------------------------|
b------------------------------------|
g-----6--9--8------------------------|
d------------------------------------|
a------------------------------------|
E------------------------------------|

Ps eso es todo es mi primera tab espero ke les lata
Y va dedicada a mi niña Adriana  te amoo
Y pues dudas ahí ta mi msn
gerardohudson@
Suggest correction
Give kudos to tab author, rate the tab!
1 2 3 4 5
comments
print report bad tab
guest
You may want to rate the tab now too:
select rating
Wanna post a correction for this tab? Suggest correction