Oops, an error
Loading. Please wait.

Tal Vez No Tab

version 1
version 1

Whole song

by Thermo
135 views 1 this week
no commentswrite comment
1 2 3 4 5
3 more votes to show rating
add to favorites
launch autoscroll
font size
0
reset
how to read this tab
guitar tuner
×
Best way to learn
"Tal Vez No"
Autoscroll
slow
fast
+/-
esc
set tempo
stop
Esta es mi primera transcripción una canción muy chida
en vivo es mejor....disfrutenla!! lml

Intro

Riff 1
----0----0----0----0----0--------------------
----0----0----0----0----0--------------------
---------------------------8---------9--------          X2
------------------------------9----9-----9---
---------------------------------------------
-0----0----0----0----0-----------------------

Riff 2
----0----0----0----0----0--------------------
----0----0----0----0----0--------------------
------------------------------8-----9--------         X2
---------------------------9-----9-----9-----
-0----0----0----0----0-----------------------
---------------------------------------------

Verso

Riff 1
Aceptaria esta noche tener que fingir
No entiendo cuando te diga que no me duele aceptar

Riff 2

Riff 1
Que fui solo una aventura, un encuentro casual
Simulando las miradas que no te quiero besar

Riff 2 Solo una vez

Em (como quita en el 7º traste)
Aunque piense lo contrario...

----0----0----0----0------
----0----0----0----0------
--------------------------         X4
--------------------------
--------------------------
-0----0----0----0---------

----0----0----0----0------
----0----0----0----0------
--------------------------        X4
--------------------------
-0----0----0----0---------
--------------------------

Riff 1
Y soy tan malo escribiendo canciones de amor
Imaginate el esfuerzo que hago el tener que contarte

Riff 2

Riff 1
Que me urguen tus manos, tu respiracion
Con tu rostro frente al mio y mis ojos cerrados

---0---0---0---0---0---0---0---0---2---2---2---2---2---2---2---2-
---0---0---0---0---0---0---0---0---0---0---0---0---0---0---0---0-
-----------------------------------------------------------------
-----------------------------------------------------------------
-0---0---0---0---0---0---0---0---0---0---0---0---0---0---0---0---
-----------------------------------------------------------------

                                    y hoy empiezo a sospechar
Coro

y voy acercandome a la idea
                        Am
de aceptar que fui un error

que probalemente fue
                         D
tu miedo a no sentirte sola

Que los besos que me dabas
                 G  B7
eran pura compasión
  Em
Y tu...deberías de comprender
                                Am
que mi intención era hacerte feliz

Se que tuve errores ten
                     D
confianza, pude mejorarlos

Seguiremos caminando es lo mejor
          G             B7
para los dos o tal vez noo

Riff 1
Riff 2

Em (como quita en el 7º traste)
Si pensabas que yo pasaría
Em (como quinta en el 7º traste)
por alto esta ocasión, te equivocaste,

Riff 2
           no lo es así
Em (como quita en el 7º traste)
dime..si estas...
Em (como quita en el 7º traste)
feliz con el

---0---0---0---0---0---0---0---0---2---2---2---2---2---2---2---2-
---0---0---0---0---0---0---0---0---0---0---0---0---0---0---0---0-
----------------------------------------------------------------
-----------------------------------------------------------------
-0---0---0---0---0---0---0---0---0---0---0---0---0---0---0---0---
-----------------------------------------------------------------
Si te hace sentir...               si te hace sonreir...

Coro.
 Em
y voy acercandome a la idea
                        Am
de aceptar que fui un error

que probalemente fue
                        D
tu miedo a no sentirte sola

Que estabas entre mis brazos
               G        B7
y pensabas regresar con él
  Em
Y tu...deberías de comprender
                               Am
que mi intención era hacerte feliz

Se que tuve errores ten
                    D
confianza, pude mejorarlos

Seguiremos caminando es lo mejor
          G             B7     Em
para los dos o tal vez noooo
Suggest correction
Give kudos to tab author, rate the tab!
1 2 3 4 5
comments
print report bad tab
guest
You may want to rate the tab now too:
select rating
Wanna post a correction for this tab? Suggest correction