Oops, an error
Loading. Please wait.

Mkk3 Bass Tab

13 views 1 this week
no commentswrite comment
1 2 3 4 5
3 more votes to show rating
add to favorites
launch autoscroll
font size
0
reset
guitar tuner
Autoscroll
slow
fast
+/-
esc
set tempo
stop
Help us to improve Ultimate-Guitar.com Take our survey!
×
These New Puritans - MKK3
Album: Beat Pyramid (2008)

-------------------------------------------------------------------------------------------------------------

This bassline repeats throughout the song.

G|----------------------------------------------------------------------------------------------------|
D|-9-9-9-9-9-9-9-9-5-5-5-5-5-5-5-5-7-7-7-7-7-7-7-7----------------------------------------------------|
A|----------------------------------------------------------------------------------------------------|
E|-------------------------------------------------5-5-5-5-5-5-5-5------------------------------------|

G|----------------------------------------------------------------------------------------------------|
D|-9-9-9-9-9-9-9-9-5-5-5-5-5-5-5-5-7-7-7-7-7-7-7-7----------------------------------------------------|
A|----------------------------------------------------------------------------------------------------|
E|-------------------------------------------------5-5-5-5-5-5-5-5-2-2-2-2-2-2-2-2-0-0-0-0-0-0-0-0----|
Suggest correction
Give kudos to tab author, rate the tab!
1 2 3 4 5
comments
print report bad tab
guest
You may want to rate the tab now too:
select rating
Wanna post a correction for this tab? Suggest correction