Oops, an error
Loading. Please wait.

Au Contraire Bass Tab

203 views 1 this week
no commentswrite comment
1 2 3 4 5
2 more votes to show rating
add to favorites
launch autoscroll
font size
0
reset
guitar tuner
Autoscroll
slow
fast
+/-
esc
set tempo
stop
Help us to improve Ultimate-Guitar.com Take our survey!
×
Author
Difficulty
intermediate
|--------1--1-0---2-2-----0-0-0-0-|
|------1--------------0-0---------|
|-3--3----------------------------|
|---------------------------------|

|--------------1-1-1--0-0-0---------------1-1-1--3---0-0-|
|--------1-1-1----------------------1-1-1----------1-----|
|-3--3-3---------------------3--3-3----------------------|
|--------------------------------------------------------|

|--------------1-1-1--0-0-0---2-2-----0-0-0-0-|
|--------1-1-1--------------------0-0---------|
|-3--3-3--------------------------------------|
|---------------------------------------------|

|-------------------------------------------0-0-0-0-|
|----------0--2--3--2--0-----0--2--4--2--4----------|
|-0--2--3-----------------4-------------------------|
|---------------------------------------------------|

Accordion Comes In
BASS PAUSES

|-0-0-|
|-----|
|-----|
|-----|

|--------------1-1-1--0-0-0---------------1-1-1--3---0-0-|
|--------1-1-1----------------------1-1-1----------1-----|
|-3--3-3---------------------3--3-3----------------------|
|--------------------------------------------------------|

|--------------1-1-1--0-0-0---2-2-----0-0-0-0-|
|--------1-1-1--------------------0-0---------|
|-3--3-3--------------------------------------|
|---------------------------------------------|

|-------------------------------------------0-0-0-0-|
|----------0--2--3--2--0-----0--2--4--2--4----------|
|-0--2--3-----------------4-------------------------|
|---------------------------------------------------|

Guitar/Flute Solo
BASS PAUSES

|--------------1-1-1--0-0-0---------------1-1-1--3---0-0-|
|--------1-1-1----------------------1-1-1----------1-----|
|-3--3-3---------------------3--3-3----------------------|
|--------------------------------------------------------|

|--------------1-1-1--0-0-0---2-2-----0-0-0-0-|
|--------1-1-1--------------------0-0---------|
|-3--3-3--------------------------------------|
|---------------------------------------------|

|-------------------------------------------0-1-|
|----------0--2--3--2--0-----0--2--4--2--4------|
|-0--2--3-----------------4---------------------|
|-----------------------------------------------|

|-------------------------------------------0-0-0-0-|
|----------0--2--3--2--0-----0--2--4--2--4----------|
|-0--2--3-----------------4-------------------------|
|---------------------------------------------------|

|--------------1-1-1--0-0-0---2-2-----0-0-0-0-|
|--------1-1-1--------------------0-0---------|
|-3--3-3--------------------------------------|
|---------------------------------------------|

|--------------1-1-1--0-0-0---------------1-1-1--3---0---|
|--------1-1-1----------------------1-1-1----------------|
|-3--3-3---------------------3--3-3----------------------|
|--------------------------------------------------------|

|--------------1-1-1--0-0-0---2-2-----0-0-0-0-----|
|--------1-1-1--------------------0-0-------------|
|-3--3-3-----------------------------------------3|
|-------------------------------------------------|
Suggest correction
Give kudos to tab author, rate the tab!
1 2 3 4 5
comments
print report bad tab
guest
You may want to rate the tab now too:
select rating
Wanna post a correction for this tab? Suggest correction